Riblja Corba - Zadnji Voz Za Cacak

Transkripcija: Orba (skola.gitare@sezampro.yu)
Home         : http://www.tablature.co.yu


=======================================================================
RIBLJA CORBA "Zadnji voz za Cacak" - solo
=======================================================================
4/4 - E dur
-----------------------------------------------------------------------
Lajt motiv pre svake strofe i refrena

leva    x   4        2  1  4
desna   '   '        '  ,  '

   e|--------------------------|
   H|--------------------------|
   G|--------------------------|
   D|---------sl---------------|
   A|------(4)->7~~--5--4------|
   E|---0................--7---|

-----------------------------------------------------------------------
Solo

Skoro ceo solo je odsviran u sesnestinama. Jedan od osnovnih 
nedostataka tablaturnog zapisa je sto, sem nekim komplikovanim 
metodama ili pisanjem klasicnih nota iznad tablature, ne ukazuju na 
trajanje tona. Obzirom da je ASCII kod gotovo idealan za tab zapis a 
neprikladan za notno pisanje objasnjenje ovog sola na neki nacin je 
osakaceno. Zato predlazem da uz citanje tablature slusate solo.

Solo koji hocete da naucite da svirate dobro preslusajte. Skinuti 
visinu svakog pojedinacnog tona uglavnom i nije neki problem. Obratite 
paznju na nacin kako je odsviran koji ton. Kao primer probajte da solo 
koji vec znate odsvirate pukim istrzavanjem svakog tona bez koriscenja 
trikova kao sto su recimo: hammer on, pull off, slide, flazolet i 
primeticete da je to sto ste odsvirali izgubilo originalnost, lepotu, 
filing i ko zna sta jos. Doduse moj je licni stav da ono sto se svira 
treba da bude verna kopija originala. Mozda malo banalan razlog ali 
recimo, skinuli ste solo u kom ste neki deo improvizovali. Odsvirana 
solaza se kao takva slaze sa pratnjom koja je kao original (vezbanje 
uz snimak) odsvirana u nekom akordu, nije bitno kom. Sta se desava ako 
vas prati neko ko je na istom mestu takodje improvizovao. Lako moze da 
se desi da se te dve improvizacije harmonski ne podudaraju. Moja je 
preporuka da naucite vasu deonicu u originalu i eventualno da se 
upoznate da onim sta ostatak orkestra svira (ako je vasa deonica bas 
solo onda obavezno upoznajte harmoniju). Ako svirate sa nekim s' kim 
vezbate probajte da improvizujete ali neka to bude dogovoreno. 
Original uvek imate kao kec u rukavu, ako vas recimo pozovu na neki 
sesn.

U ovom solu ima dosta brzih pasaza. Nemojte ih siliti, uvezbavajte ih 
polako (ovo je generalna preporuka). Tek kad neki deo dobro savladate 
svirajuci ga sporo malo ga ubrzajte. Tako redom do brzine koja je 
nesto brza od prave. To je vazno jer se u zivom nastupu pesme uglavno 
sviraju dinamicnije. Metronom u ovakvim situacijama moze da pomogne, 
probajte i videcete koliko zapravo ritmicki talasate.

leva     1   2   1   2   1   2   1   2   1   2   1   2   1   2   1   2
desna    '       '   ,   '       '   ,   "       '   ,   "       '   ,

   e|--------------------------------------------------------------------|
   H|-----ho----12--------ho----12--------ho----12--------ho----12-------|
   G|---12--13------13--12--13------13--12--13------13--12--13------13---|
   D|--------------------------------------------------------------------|
   A|--------------------------------------------------------------------|
   E|--------------------------------------------------------------------|

        E.............  E.............  E.............  E.............


leva     1   2   1   2   1   2   1   2   1
desna    '       '   ,   '       '   ,   '

   e|--------------------------------------------------------------------|
   H|-----ho----12--------ho----12---------------------------------------|
   G|---12--13------13--12--13------13-----------------------------------|
   D|-----------------------------------14~~~~~~~~~~~~~~~~~~~~~~~~~~~~---|
   A|--------------------------------------------------------------------|
   E|--------------------------------------------------------------------|

        E.............  E.............  E.............  E.............

Ovo je uvodni deo solaze. Za njega posebno vazi pravilo da se uvezbava 
polako. Dug sviracki staz mi je omogucio da solo koji skinem odmah 
mogu da odsviram skoro u originalnom tempu. Kad sam skinuo ovu foru 
nisam mogao da je odsviram dovoljno brzo. Par sati vezbe samo tog dela 
i sad ga sviram u sestoj brzini bez problema.

Jos jedna napomena koju tablatura nije u stanju da docara. Ovaj deo 
nemojte svirati tako sto ce te kaziprstom poklopiti drugu i trecu 
zicu. Ne zvuci tako. Dvanesti prag druge zice uvek ostaje da svira i 
tako pravi buku. Ovaj deo zapravo zvuci odsecno. Prst morate stalno da 
premestate sa trece na drugu zicu, pa sa druge na trecu i sve tako. 
Komplikovano za uvezbavanje ali efektno.

leva     1   2   1   1   4   2   1   3   1   1       4   1   2   4   2
desna    '       '   ,   '           '   '   ,       '   ,   '   ,   '

   e|---------------12----po--po-----------------------------------------|
   H|-----ho----12------15--14--12------12----sl-------------------------|
   G|---12--13----------------------14------12->11------11---------------|
   D|-----------------------------------------------14------12------12---|
   A|-----------------------------------------------------------14-------|
   E|--------------------------------------------------------------------|

        E.............  E.............  E.............  E.............

Na pocetku ovog dela treba drzati kaziprstom prvu, drugu i trecu zicu.

leva     1   3   1   3   1   2   3   1   2   4   1   2   3   4
desna    ,       ,   '   ,   '   ,   '   ,   '   ,   '   ,   '

   e|-------------------------------------------14--15--16--17---|
   H|-------------------------------12--15--17-------------------|
   G|-------------------12--13--14-------------------------------|
   D|-----ho----12--14-------------------------------------------|
   A|---12--14---------------------------------------------------|
   E|------------------------------------------------------------|

        E.............  E.............  E.............  E.....


leva      4         4        4   2   4   3
desna     ,         ,        ,   '   ,   '
            bu        bu
   e|---(17)->18--(17)->19--17--15--17-----------------------|
   H|-----------------------------------17~~~~~~~~~~~~~~~~---|
   G|--------------------------------------------------------|
   D|--------------------------------------------------------|
   A|--------------------------------------------------------|
   E|--------------------------------------------------------|

        A.............  A.........  A.........  A.........


leva     1   2   1   3   1   3       1   3   1   2   1
desna    '       '   ,   '   '       ,   '       '   ,

   e|-------------------------ld----------po-------------|
   H|-----ho----17--19--17--20->19--17--19--17------17---|
   G|---17--18----------------------------------18-------|
   D|----------------------------------------------------|
   A|----------------------------------------------------|
   E|----------------------------------------------------|

        A.........  A.....  A.........  A.............


leva     3       3           4   1     1   1
desna    '       ,           ,   '     '   ,

   e|-----bu------bu-------19-----------------------|
   H|---19->21--19->21.......--17~~~~~~~~--17--17---|
   G|-----------------------------------------------|
   D|-----------------------------------------------|
   A|-----------------------------------------------|
   E|-----------------------------------------------|

        E.............  E....  E......  E........


leva     3       3   2   1   3   4   1   4   4   1   3
desna    '       ,   '   ,   '   ,   '   ,   '   ,   '
          bu
   e|---19->21--19--18--17--19------17-------------------|
   H|---------------------------20------20--21--17--19---|
   G|----------------------------------------------------|
   D|----------------------------------------------------|
   A|----------------------------------------------------|
   E|----------------------------------------------------|

        E.....  E.....  E.............  E.............


leva     1   4   2   1   1   3   1   1   1   3   3   3   1   2   3
desna    ,   '   ,   '   ,   '   ,   '   ,   '   ,   '   ,       '

   e|----------------------------------------------------------------|
   H|---15--19--17--15--14------14------------------------ho---------|
   G|-----------------------16------14--12------14------12--13-------|
   D|---------------------------------------14------14----------14---|
   A|----------------------------------------------------------------|
   E|----------------------------------------------------------------|

        H.............  H.............  H.............  H.........


leva     1   2   1   1   4   3   1   3   1   1   3   3   3   1   3   1
desna    ,       '   ,   '           '   ,   '   ,   '   ,       '

   e|---------------12----po--po-----------------------------------------|
   H|-----ho----12------15--14--12------12----------------po-------------|
   G|---12--13----------------------14------12----------14--12----po-----|
   D|-------------------------------------------14--14----------14--12---|
   A|--------------------------------------------------------------------|
   E|--------------------------------------------------------------------|

        A(break)......  A(silence)....  A(silence)....  A(silence)....

Obratite paznju. Ovaj takt je nesto sporiji od ostalih. Bend na 
pocetku takta svira break i gitara ostaje sama.

Jos jedan interesantan detalj. Da bi solo dobio sto jaci rokerski 
filing iskoriscena je jedna bluzerska fora. Skoro svi tonovi ovog 
takta odsvirani su sa malim zakasnjenjem (standardan i efektan stos, 
ovog puta nije rec o sinkopi). Eto razloga zasto je ovaj takt traje 
duze.

Usporavanje jednog ili vise taktova retko je posledica ovog fazona, na 
kraju krajeva ritam sekcija i takt su po prirodi stvari stariji od 
sola, ali je ovde lepo iskoristena prilika kad je gitara vec ostala 
sama.

leva     3       1   2   1   1    4           4   2   1
desna    '       ,       '   ,    '           ,   '   ,

   e|-----------------------12------sl--------------------|
   H|-------------ho----12------(15)->17...--17--15--12---|
   G|-----------12--13------------------------------------|
   D|---14~~~~--------------------------------------------|
   A|-----------------------------------------------------|
   E|-----------------------------------------------------|

        E.....  E.............  E..........  E.........


leva     3       1   1   3   1   1   1
desna    '       ,   '       ,   '   '

   e|---------------------------------------------------------|
   H|-----bu----12----ho----12------12~~~~~~~~~~~~~~~~~~~~~---|
   G|---14->16....--12--14------12----------------------------|
   D|---------------------------------------------------------|
   A|---------------------------------------------------------|
   E|---------------------------------------------------------|

        H.........  H.............  H..........  H.........

Ovo je kraj prvog dela solaze. Kako i zasto prvi i drugi deo? Pa cesto 
se, kao dobar stos, koristi mogucnost koju daje studio da se neki 
instrumenti nasnimavaju. Konkretno u ovom slucaju od ovog trenutka 
gitara koja svira solo menja boju tona (po mom misljenu sa malo vise 
distorzije i sa malo vise korusa). Ovome se pribegava da bi slusalac 
ili podsvesno (neko ko nije upucen u tehnike sviranja, snimanja i 
izvodjenja muzike) ili svesno osetio razliku i da bi se stekao 
dozivljaj kao da svaki deo svira drugi gitarista.

Nevezno za ovaj solo, uz ovaj trik neretko se koristi i panorama radi 
jaceg utiska, tacnije jedna gitara se postavi u odnosu recimo 60% levi 
- 40% desni kanal, a druga kontra. Po negde se u duzim solazama desava 
da se zvuk posle celog broja taktova (muzicari ga cesto nazivaju krug) 
prve girate ponovo vrati. Sve to zajedno zvuci: prva - druga - prva - 
druga - prva - druga... gitara, kao da se nadmecu. Lepa fora.

E sad, jos jedno objasnjenje. Zasto bi grupa koja ima dvojicu 
gitarista koristila ovako nesto (koliko ja znam u trenutku snimanja 
ove pesme u Ribljoj Corbi su svirali gitare Dzindzer i Cutura). Licno 
smatram da iako odlican gitarista Cutura nije mogao da odsvira neke 
zahtevne deonice. Ovome jos pribegavaju i grupe koje hoce da dokazu 
pojedinacni kvalitet svakog kao instrumentaliste.

leva     3       1   1   4   1   3       1   4   1   3       1   1   4   1   3       1   1   4   1
desna    '       '   ,   '   ,   '       ,   '   ,   '       '   ,   '   ,   '       '   ,   '   ,

   e|---------------12------------------12----------------------12----------------------12-----------|
   H|-----bu----12------15--12----bu--------15--12----bu----12------15--12----bu----12------15--12---|
   G|---14->16------------------14->16--------------14->16------------------14->16-------------------|
   D|------------------------------------------------------------------------------------------------|
   A|------------------------------------------------------------------------------------------------|
   E|------------------------------------------------------------------------------------------------|

        E.....................  E.................  E.....................  E.....................

Posle mnogo preslusavanja otkrio sam (za otkrivanje svih detalja nije 
lose, ukoliko ste u mogucnosti, usporit snimak) da je ova, u solazama 
cesto koriscena, fraza odsvirana nepravilno. Posle zavrtanja trece 
zice, prvi put odsviran je dvanesti prag druge zice a drugi put ne, 
zatim treci i cetvri put ponovo da, takodje i peti put (u sledecem 
taktu). Najverovatnije se radi o gresci pri sviranju jer sumnjam da se 
bas to htelo.

leva     3       1   1   4   1   3           1   3   3   3   1   1         1   3
desna    '       '   ,   '   ,   '           ,   '   ,   '   ,   '         ,

   e|---------------12------------------------------------------------------ho-----|
   H|-----bu----12------15--12----bu--lb----------------------------------12--14---|
   G|---14->16------------------14->16->14--12------14------12--12~~~~~~-----------|
   D|-------------------------------------------14------14-------------------------|
   A|------------------------------------------------------------------------------|
   E|------------------------------------------------------------------------------|

        E.....................  E.................  E..............  E..........


leva     4                       1   3  4                       1   3
desna    '                       ,      '                       ,

   e|-----------------------------ho-------------------------------------|
   H|---15~~~~~~~~~~~~~~~~~~~~--12--14--15~~~~~~~~~~~~~~~~~~~~--12--14---|
   G|--------------------------------------------------------------------|
   D|--------------------------------------------------------------------|
   A|--------------------------------------------------------------------|
   E|--------------------------------------------------------------------|

        E.............  E.............  E.............  E.............


leva     4   3   1   3   1                       1   3
desna    '   ,   '   ,   '                       ,
                                                  ho
   e|-------------------------------------------12--14---|
   H|---15--14--12---------------------------------------|
   G|---------------14--12~~~~~~~~~~~~~~~~~~~~-----------|
   D|----------------------------------------------------|
   A|----------------------------------------------------|
   E|----------------------------------------------------|

        E.....  E.....  E..............  E............


leva     4                       1   3  4                       1   3
desna    '                       ,      '                       ,
                                  ho                              ho
   e|---15~~~~~~~~~~~~~~~~~~~~--12--14--15~~~~~~~~~~~~~~~~~~~~--12--14---|
   H|--------------------------------------------------------------------|
   G|--------------------------------------------------------------------|
   D|--------------------------------------------------------------------|
   A|--------------------------------------------------------------------|
   E|--------------------------------------------------------------------|

        A.............  A.............  A.............  A.............


leva     4   3   1   3   3                  1
desna    '   ,   '   ,   '                  ,

   e|---15--14--12--------bu--------------------|
   H|---------------15--15->17~~~~~~~~~~~-------|
   G|-------------------------------------------|
   D|-------------------------------------------|
   A|--------------------------------------12---|
   E|-------------------------------------------|

        A.....  A.....  A........  A.........

Deo koji cine poslednja cetiri takta (meni najlepsi deo) odsviran je, 
kao sto se vidi po pratnji, u dva tonaliteta. Prvi deo odsviran je na 
dvanestom pragu druge zice a drugi na dvanestom prve. Za ovaj drugi 
deo jos uvek nisam siguran kako se zapravo svira. Evo u cemu je 
problem. Drugi deo je moguce odsvirati i na drugoj zici sa sedamnestog 
praga. Po onome sta sam citao po nekim knjigama i uopste gledano to je 
nepravilnija varijanta jer leva ruka u tom slucaju prelazi na drugu 
poziciji (kad kazem pozicija nemislim bukvalno, nego na gitarski 
termin). Ja sam se ipak odlucio da ovom tablaturom objasnim pre svega 
izvornu verziju, ipak evo i razloga zasto ga po nekad sviram i na onaj 
nacin. Prvo, deo nije ni brz ni zahtevan pa se promena pozicije ne 
odrazava na ukupnu tonsku sliku, i drugo, na razlicitim gitarama sam 
svirao ovaj solo i kad ga odsviram na prvoj zici nezvuci dovoljno 
ubedljivo.

Mnoge gitare (da ne kazem skoro sve) koje sam svirao kao da imaju 
problem prve zice. Prva zica im po pravilu zvuci tanko i u odnosu na 
ceo komplet mnogo svetlije (pling, pling).

leva     3       1   1   4   1   3           1   3   3   3   1   1           3   1   3
desna    '       '   ,   '       '           ,   '   ,   '   ,   '           '   ,   '

   e|---------------12----po-------------------------------------------------------------|
   H|-----bu----12------15--12----bu--lb-------------------------------------------------|
   G|---14->16....--------------14->16->14--12------14------12--12~~~~~~~~---------------|
   D|-------------------------------------------14------14------------------14--12--14---|
   A|------------------------------------------------------------------------------------|
   E|------------------------------------------------------------------------------------|

        E.....................  E.................  E................  E..............


leva    x   1   1   3   1   3   1   1   1
desna   ,   '   '   '   ,   '   ,   ,   '

   e|-------------------------------------------------|
   H|-------------------------------------------------|
   G|---0--12--12--------------12--12--12~~~~~~~~~~---|
   D|---0--12--12--14--12--14--12--12--12~~~~~~~~~~---|
   A|-------------------------------------------------|
   E|-------------------------------------------------|

        E....  E.............  E.....  E...........


leva     4       1   4   3   4   3   1   3   1   3   1
desna    '       ,   '   ,       '   ,   '       '   ,

   e|-----bu----12--------ho--------------ho-------------|
   H|---15->17------15--14--15--14--12--14--12------12---|
   G|-------------------------------------------14-------|
   D|----------------------------------------------------|
   A|----------------------------------------------------|
   E|----------------------------------------------------|

        H.....  H.....  H.............  H.............


leva     3   1   3   1   3           1   3   3   3   1   1   1
desna    '       '   ,   '           ,   '   ,   '   ,   '   ,

   e|-----po-----------------------------------------------------|
   H|---13--12------12----bu--lb---------------------------------|
   G|-----------14------14->15->14--12------14------12--12--12---|
   D|-----------------------------------14------14---------------|
   A|------------------------------------------------------------|
   E|------------------------------------------------------------|

        A(break)......  A(silence)........  A(silence)  A(silence)


leva     1           1           1     x
desna    '           '           '     ,

   e|--------------------------------------|
   H|-----------------------------sl-------|
   G|---12~~~~~~~~--12~~~~~~~~--12->\--0---|
   D|--------------------------------------|
   A|--------------------------------------|
   E|--------------------------------------|

        E.........  E.........  E    E  


leva     3       3       3
desna    '       '       ,
          bu      bu
   e|---19->21--19->21--19~~~~~~~~~~~~---|
   H|------------------------------------|
   G|------------------------------------|
   D|------------------------------------|
   A|------------------------------------|
   E|------------------------------------|

        H.....  H.....  H.....  H.....

Evo ga kraj.

Za kraj jos jedan savet: kad uvezbavate ovaj solo bilo bi korisno da 
prvo odsvirate krug ili dva lajt motiva, zatim solo i na kraju opet 
krug ili dva lajt motiv. Ja sam tako napravio veliku gresku jer posle 
nikako nisam mogao da se naviknem na "skok" levom rukom pre i posle 
solaze.
-----------------------------------------------------------------------
Primedbe i sugestije svakog gitariste bice mi korisne.
Srecan rad!
jcerni@sezampro.yu
=======================================================================