Riblja Corba - Zasto Kuce Arlauce

Transkripcija: Toma 3:16 (toma3-16@wanadoo.fr)


------------------------------------------------------------------------------
------------------------------------------------------------------------------
-3-------4~---3------------3-------4~4~4~4~4~4~4~4~--3------------------------
---4-1-4--------4-1-4-4~-----4-1-4---------------------4-1-4--4-4--4^4^6^4^3^4
------------------------------------------------------------------------------
------------------------------------------------------------------------------

RIFF                        G  F# G
      Da li tuce gazda kuce?
                           G  F# G
      Tuce gazda kuce vazda.
                       G  F# G
      Zato kuce arlauce.

RIFF     G                      C
      Ja ne znam zasto kuce arlauce.
         G                  A F#G
      Ja ne znam zasto kuce arlauce.
         G                      C
      Ja ne znam zasto kuce arlauce.
         G                  A F#G   G  A G F# G
      Ja ne znam zasto kuce arlauce.

RIFF                       G  F# G
      Gazda bezi, kuce rezi
                           G  F# G
      hoce gazdu za odmazdu.
                            G  F# G
      Sad ga vezi, kada lezi.

RIFF     G                      C
      Ja ne znam zasto kuce arlauce.
         G                  A F#G
      Ja ne znam zasto kuce arlauce.
         G                      C
      Ja ne znam zasto kuce arlauce.
         G                  A F#G   G  A G F# G
      Ja ne znam zasto kuce arlauce.

SOLO + RIFF  G  F# G  (x4)

------------------------------------------------------------------------------
------------------------------------------------------------------------------
-3-------4~---3------------3-------4~4~4~4~4~4~4~4~--3------------------------
---4-1-4--------4-1-4-4~-----4-1-4---------------------4-1-4--4-4--4^4^6^4^3^4
------------------------------------------------------------------------------
------------------------------------------------------------------------------

RIFF                          G  F# G
      Kuce gladno, mnogo gadno
                           G  F# G
      Kuce kopa, hoce klopa.
                            G  F# G
      Dragi gosti, evo kosti.

RIFF     G                      C
      Ja ne znam zasto kuce arlauce.
         G                  A F#G
      Ja ne znam zasto kuce arlauce.
         G                      C
      Ja ne znam zasto kuce arlauce.
         G                  A F#G   G  A G F# G
      Ja ne znam zasto kuce arlauce.

RIFF                        A  G# A
      Gde si juce bilo kuce?
                             A  G# A
      Kuce skita, Bog te pita.
                         A  G# A
      Kuce seta oko sveta.

RIFF     A                      D
      Ja ne znam zasto kuce arlauce.
         A                  B G#A
      Ja ne znam zasto kuce arlauce.
         A                      D
      Ja ne znam zasto kuce arlauce.
         A                  B G#A   A  B A G# A
      Ja ne znam zasto kuce arlauce.

------------------------------------------------------------------------------
------------------------------------------------------------------------------
-3-------4~---3------------3-------4~4~4~4~4~4~4~4~--3------------------------
---4-1-4--------4-1-4-4~-----4-1-4---------------------4-1-4--4-4--4^4^6^4^3^4
------------------------------------------------------------------------------
------------------------------------------------------------------------------