Riblja Corba - Zelena Trava Doma Mog

Transkripcija: G.Conjic - Kirk_H. konsal@mail.com


Intro:G,G7,C,G,D7,G

G
Moj rodni grad je tamo dole
       C           G		 
a tamo dole svi me vole
	                   D7
ispred vrata cekaju mama i tata

Ref: 
       G	 G7	 
Ispred kuce ruke siri meri   
C
ja joj kazem 'ajd' ne seri      
   G				
ja idem da vidim
D7		  G
zelenu travu doma mog

Solo:

evo me stizem iz daleka
gde trava nije bas i neka
kraj rodne reke ima lepe trave meke

Ref:
mene ceka cela familija
'ocu da ih vidim i ja          
al' sad je preca
zelena trava doma doma mog

Solo:

jebi ga
onda sam sam se probudio  
i sam sam se sebi cudio			    
i zamalo da me strefi slog
		
video sam cetiri zida me okruzuju
i shvatio da me optuzuju
sto sam tajio da sam gajio
zelenu travu doma mog

Ref:	 
oce da mi rikne moja cuka
oce da me strefi slo      
sto ne mogu da vidim
zelenu travu doma mog

Solo:
         G     G7      C              G   D7        G  

E|---7-8-10~-7-8-7---------------------------8-7----------|
H|-----------------10-8~-7-8-10-8-7-----8-10-----10-8~----|
G|----------------------------------9-7-------------------|
D|--------------------------------------------------------|
A|--------------------------------------------------------|
E|--------------------------------------------------------|

***VERZIJA 2***
Transkripcija: Bojan Vrucinic (bvrucinic@yahoo.com)

SOLO:
e|---7---8---10---10---10---7---8---7---5---3---3---3---2---3---5-----|
H|--------------------------------------------------------------------|
G|--------------------------------------------------------------------|
D|--------------------------------------------------------------------|
A|--------------------------------------------------------------------|
E|--------------------------------------------------------------------|

e|-------3---2---0-------2---2---5---8---7---5---3--------------------|
H|-------------------3------------------------------------------------|
G|--------------------------------------------------------------------|
D|--------------------------------------------------------------------|
A|--------------------------------------------------------------------|
E|--------------------------------------------------------------------|