Ritam Nereda - Betrayed

Transkripcija: Gvozden Conjic - konsal@mail.com

Napomena: Stim Gitare Eb : D# A# F# C# G# D#

Uvod:
D#|--------------------------|-----------------------------|
A#|--------------------------|-----------------------------|
F#|--------------------------|-----------------------------|
C#|--9----7--9----7--9--7----|--12----9--12----9--12--9----|
G#|--7----5--7----5--7--5----|--10----7--10----7--10--7----|
D#|--------------------------|-----------------------------|

                       Strofa:  Palm mute                
D#|--------------------------|--------------------------|
A#|--------------------------|--------------------------|
F#|--------------------------|--------------------------|
C#|--------------------------|--------------------------|
G#|---2----5--2----5--2--5---|---2----5--2----5--2--5---|
D#|---0----3--0----3--0--3---|---0----3--0----3--0--3---|


Betrayed!
      
You make me real
You realy make me sensitive
I feel my brain 
I feel what you say, my friend

You hide something form me
my friend, my friend, be trayed

You made my fear
You always ruin everything
My hope my will
You make me, you make me real, my friend

You hide something form me
my friend, my friend, be trayed