Smak - 5. Maj

Transkripcija: http://www.smak.co.yu
Poslala      : djavolica



/=slide up
\=slide down
p=pull of
h=hammer on
^=band
r=release
t=triplet
"=32nd note
x=pause
hr=harmonic

intro
e --------------------||
B --------------------||
G --------------------||
D 00230---------------||
A 00230---------------||
D 00230---------------|| 4X

riff 1                                      riff 2 
|----------------|------------4---||    |----------------||
|------------3-3-|------------3---||    |----------------||
|------------0-0-|------------4---||    |----------------||
|0023002300300-2-|0023002300303---||    |0023443455423321||
|0023002300302-3-|002300230030----||    |0023443455423321||
|002300230030----|002300230030----|| 2x |0023443455423321|| 4x

riff 3
|----------------------------------||
|3t3t3t3-3t3t3t3-2t2t2t2t2t2t------||
|2t2t2t2-2t2t2t2-2t2t2t2t2t2t------||
|0t0t0t0-0t0t0t0-0t0t0t0t0t0t4hr---||
|0t0t0t0-0t0t0t0-0t0t0t0t0t0t4hr---||
|0t0t0t0-0t0t0t0-0t0t0t0t0t0t4hr---|| 4x

riff 4
|--------------------------------------||
|--------------------------------------||
|7-9tp10tp11t7-9tp10tp11t7-9th10t7t9---||
|0-0---------0-0---------0-0-------0---||
|--------------------------------------||
|--------------------------------------|| 4x