Smak - Biska 16

Home         : http://www.smak.org.yu


(Eb tune)

  Riff 1:
Eb|----------------|----------------|----------------|----------------||
Bb|----------------|----------------|----------------|----------------||
Gb|----------------|----------------|----------------|----------------||
Db|2-4-5420--2--2--|2-4-5420--2-----|2-4-5420--2--2--|2-4-5420--2-----||
Ab|-2-0-------2--2-|-2-0-------2----|-2-0-------2--2-|-2-0-------2----||
Eb|--------3---0--0|--------3---0---|--------3---0--0|--------3---0---||

  Riff 2:
Eb|----------------|----------------|----------------|----------------||
Bb|----------------|----------------|----------------|----------------||
Gb|------------7-9-|------------7-9-|------------7-9-|------------7-9-||
Db|2---------------|2---------------|2---------------|2---------------||
Ab|-23---5-57--5-7-|-23---5-57--5-7-|-23---5-57--5-7-|-23---5-57--5-7-||
Eb|---53--3--5-----|---53--3--5-----|---53--3--5-----|---53--3--5-----||

  A part:
Eb|----------------|--------|------------------|----------------|
Bb|----------------|--------|------------------|----------------|
Gb|--------5---5---|--------|--76--------------|--------5---5---|
Db|2---2---5---5---|5---5---|9-767-5-7---------|2---2---5---5---|
Ab|2---2---3---3---|5---5---|9-547-5-7-2t0t----|2---2---3---3---|
Eb|0---0-----------|3---3---|7---5-3-5-----3t2-|0---0-----------|

Eb|--------------------|0---0---2---2---|0---0-----------|00------22------|
Bb|--------------------|0---0---3---3---|1---1-----------|00------33------|
Gb|--------------------|0---0---2---2---|0---0-----------|00------22------|
Db|5---5---5--5--------|2---2---0---0---|2---2--020------|22------00------|
Ab|5---5---5h75-5------|2---2-----------|3---3-----320---|22--------------|
Eb|3---3--------5h7p53-|0---0-----------|-------------32-|00--------------|

Eb|0---2---0---0---|0---0---3---3---|----------------||
Bb|0---3---1---1---|1---1---0---0---|----------------||
Gb|0---2---0---0---|0---0---0---0---|7---7-----------||
Db|2---0---2---2---|2---2---0---0---|7---7---7---7---||
Ab|2-------3---3---|3---3---2---2---|5---5---7---7---||
Eb|0---------------|--------3---3---|--------5---5---||

  Riff 3:
Eb|----------------|----------------|----------------|----------------||
Bb|----------------|----------------|----------------|----------------||
Gb|----------------|----------------|----------------|----------------||
Db|---454----------|---454----------|---454----------|---454----------||
Ab|77----70---050-0|77----70--7-----|77----70---050-0|77----70--7-----||
Eb|0-------33----5-|0-------55-03523|0-------33----5-|0-------55-03523||

  B part:
Eb|----------------|----------------|----------------|--------|
Bb|3--3------------|3--3------------|3--3------------|3--3----|
Gb|2--2----2--2----|2--2----2--2----|2--2----2--2----|2--2----|
Db|0--0----2--2----|0--0----2--2----|0--0----2--2----|0--0----|
Ab|3--3----0--0----|3--3----0--0----|3--3----0--0----|3--3----|
Eb|--------3--3----|--------3--3----|--------3--3----|--------|

Eb|---------------|----------------||
Bb|---------------|----------------||
Gb|---5--7-999----|9--7--5---------||
Db|5--5--7-777----|9--7--5---------||
Ab|5--3--5-777----|7--5--3---------||
Eb|3--------------|----------------||

  C part:
Eb|----------------|----------------|----------------|----------------|
Bb|----------------|----------------|----------------|----------------|
Gb|----------------|----------------|----------------|----------------|
Db|---------555----|---------555----|---------555----|---------555----|
Ab|2--3--5--7775-3-|2--3--5--7775-3-|2--3--5--7775-3-|2--3--5--7775-3-|
Eb|3--5--7-----7-5-|3--5--7-----7-5-|3--5--7-----7-5-|3--5--7-----7-5-|

Eb|----------------|--------------|----------------|------------------|
Bb|----------------|--------------|----------------|------------------|
Gb|----------------|--------------|----------------|------------------|
Db|---------555----|---------555--|-----------555--|-----------555----|
Ab|2--3--5--7775-3-|2--3--5--7775-|3-2--3--5--7775-|3-2--3--5--7775-3-|
Eb|3--5--7-----7-5-|3--5--7-----7-|5-3--5--7-----7-|5-3--5--7-----7-5-|

Eb|------------------||
Bb|------------------||
Gb|----------5---7---||
Db|----------5---7---||
Ab|2--3--5---3---7---||
Eb|3--5--7-----------||

  D part:
Eb|----------------|----------------|----------------|------------------------||
Bb|----------------|----------------|----------------|------------------------||
Gb|--------3--5----|--------3--5----|--------3--5----|--------5--7----9-------||
Db|2--4----5--7----|2--4----5--7----|2--4----5--7----|2--4----5--7----9-------||
Ab|3--5----3--5----|3--5----3--5----|3--5----3--5----|3--5----3--5----7-------||
Eb|5--7------------|5--7------------|5--7------------|5--7------------0-------||

  Riff 4:
Eb|----------------||
Bb|----------------||
Gb|----------------||8x
Db|90--70----------||
Ab|--70--7050--70--||
Eb|----------50--0-||

  Riff 5:
Eb|----------------|----------------|----------------|--------------||
Bb|----------------|----------------|----------------|--------------||
Gb|----------------|----------------|----------------|--------------||
Db|------4567------|------4567------|------4567------|------4-------||
Ab|45--45----67--67|45--45----67--67|45--45----67--67|45--45--------||
Eb|--45--------67--|--45--------67--|--45--------67--|--45----------||

  Fine:
Eb|-5------------------|------------------|8---------------|8-
Bb|--57p5---8p5------5-|------------------|8---------------|8-
Gb|------7p5---7p5--5-5|7p5---------------|7---------------|7-
Db|---------------77---|---7p57-7---------|7---------------|7-
Ab|--------------------|------------------|7---------------|7-
Eb|--------------------|------------------|5---------------|5-

  Form: Riff1|Riff2|A|Riff3|B|C|D|Riff4|Riff5|fine