Smak - Biska 2

Transkripcija: Sale (webgazda@pop.transit.ru)
Home         : http://www.tablature.co.yu


Uvod


   Gitara-1. (4x)
|E|--------------------+-------------------+--------------------+------|
|H|---------------5----+--------------3----+--------------------+------|
|G|---4---4---4---4----+--2---2---2---2----+----------4---------+------|
|D|---4---4---4--------+--2---2---2--------+--2---4---4---------+--4---|
|A|--------------------+-------------------+--2---4-------------+--4---|
|E|--------------------+-------------------+--------------------+------|


   Gitara-1. (3x)
|E|--------------------+-------------------|
|H|--------------------+-------------------|
|G|-----------4--------+-------------------|
|D|---2---4---4--------+--4----------------|
|A|---2---4------------+--4----------------|
|E|--------------------+-------------------|


Tema 1


   Gitara-1 & Gitara-2. (1x)
|E|------------------+-------------------+-----------------+-----------------|
|H|------------------+-------------------+-----------------+-----------------|
|G|-----------4--2---+-4-2-4^6-2-4-2?4?2-+---------4---2---+4---2---4^6---2--|
|D|-(0)-4--4---------+-------------------+-4---4-----------+-----------------|
|A|------------------+-------------------+-----------------+-----------------|
|E|------------------+-------------------+-----------------+-----------------|


   Gitara-1 & Gitara-2. (1x)
|E|--------------------+-------------------+--------------------+----------|
|H|--------------------+-------------------+------------2-------+----------|
|G|-------------4--2---+-4-2-4^6-2-4-2?4?2-+------4---4---4--2--+----------|
|D|-------4--4---------+-------------------+--4-0---0-----------+--4-------|
|A|--------------------+-------------------+--------------------+----------|
|E|--------------------+-------------------+--------------------+----------|
 

   Gitara-1. (1x)
|E|------------------+------------------+-----------------+----------------|
|H|------------------+------------------+-----------------+----------------|
|G|-----------4--2---+4-2-4^6-2-4-2?4?2-+---------4---2---+4---2---4^6---2-|
|D|-(0)-4--4---------+------------------+-4---4-----------+----------------|
|A|------------------+------------------+-----------------+----------------|
|E|------------------+------------------+-----------------+----------------|
|*|
|*|Gitara-2. (1x)
|E|------------------+------------------+-----------------+----------------|
|H|------------------+------------------+-----------------+----------------|
|G|-----------7--6---+7-6-7-9-6-7-6?7?6-+--------7---6----+7---6---7-9---6-|
|D|-----7--7---------+------------------+7---7------------+----------------|
|A|-(9)--------------+------------------+-----------------+----------------|
|E|------------------+------------------+-----------------+----------------|
 

   Gitara-1. (1x)
|E|--------------------+-------------------+--------------------+----------|
|H|--------------------+-------------------+------------2-------+----------|
|G|-------------4--2---+-4-2-4^6-2-4-2?4?2-+------4---4---4--2--+----------|
|D|-------4--4---------+-------------------+--4-0---0-----------+--4-------|
|A|--------------------+-------------------+--------------------+----------|
|E|--------------------+-------------------+--------------------+----------|
|*|
|*|Gitara-2. (1x)
|E|--------------------+-------------------+--------------------+----------|
|H|--------------------+-------------------+------------9-------+----------|
|G|-------------7--6---+-7-6-7-9-6-7-6?7?6-+------7---7---7--6--+----------|
|D|-------7--7---------+-------------------+--7-----------------+--7-------|
|A|---(9)--------------+-------------------+--------------------+----------|
|E|--------------------+-------------------+--------------------+----------|




Tema 2


   Gitara-1 & Gitara-2. (4x)
|E|--------------------+-------------------|
|H|--------------------+-------------------|
|G|------------2-------+-------------------|
|D|----4-1-2-4---1-4---+-2-----------------|
|A|--------------------+-------------------|
|E|--0-----------------+----0-0-0-0-0------|

************************************************************************************


Tema 3


   Gitara-1. (1x)
|E|--------------------+-------------------+---------------------+-------------------|
|H|--------------------+-------------------+---------------------+-------------------|
|G|-----------2--------+----------5--------+---------------------+-------------------|
|D|-------4-------4----+------7-------7----+----------5----------+---------3---------|
|A|---2----------------+--5----------------+------7-------7------+-----5-------5-----|
|E|--------------------+-------------------+--5------------------+-3-----------------|
|*|
|*|Gitara-2. (1x)
|E|--------------------+-------------------+---------------------+-------------------|
|H|----------------12--+-12^10---7----7----+12^14-12-10----------+-------------------|
|G|---8--9---11--------+-------------------+-----------12-11-9-7-+-9^11-9-7-6-9-7----|
|D|--------------------+-------------------+---------------------+-------------------|
|A|--------------------+-------------------+---------------------+-------------------|
|E|--------------------+-------------------+---------------------+-------------------|
 

   Gitara-1. (1x)
|E|--------------------+---------0---------+--------------------+--------------------|
|H|--------------------+---------0---------+--------------------+--------------------|
|G|-----------2--------+-------------------+--------------------+--------------------|
|D|-------4-------4----+-------------------+--------------------+--------------------|
|A|---2----------------+-------------------+--------------------+--------------------|
|E|--------------------+--0--0-------------+--------------------+--------------------|
|*|
|*|Gitara-2. (1x)
|E|--------------------+---------0---------+--------------------+--------------------|
|H|----------------5---+---------0---------+--------------------+--------------------|
|G|---9-------4------4-+-------------------+--------------------+--------------------|
|D|-------------4------+-2---2-------------+--------------------+--------------------|
|A|--------------------+-------------------+--------------------+--------------------|
|E|--------------------+-------------------+--------------------+--------------------|
 

   Gitara-1. (1x)
|E|--------------------+-------------------+--------------------+--------------------|
|H|--------------------+-------------------+--------------------+--------------------|
|G|-----------2--------+----------5--------+--------------------+--------------------|
|D|-------4-------4----+------7-------7----+----------5---------+----------3---------|
|A|---2----------------+--5----------------+------7-------7-----+------5-------5-----|
|E|--------------------+-------------------+--5-----------------+--3-----------------|
|*|
|*|Gitara-2. (1x)
|E|--------------------+-------------------+---------------------+-------------------|
|H|----------------12--+-12^10---7----7----+12^14-12-10----------+-------------------|
|G|---8--9---11--------+-------------------+-----------12-11-9-7-+-9^11-9-7-6-9-7----|
|D|--------------------+-------------------+---------------------+-------------------|
|A|--------------------+-------------------+---------------------+-------------------|
|E|--------------------+-------------------+---------------------+-------------------|
 

   Gitara-1. (1x)
|E|--------------------+-------------------+--------------------+--------------------|
|H|--------------------+-------------------+--------------------+--------------------|
|G|-----------2--------+-------------------+--------------------+--------------------|
|D|-------4-------4----+----------5--------+----------4---------+----------2---------|
|A|---2----------------+------7-------7----+------4-------4-----+------2-------2-----|
|E|--------------------+--5----------------+--2-----------------+--0-----------------|
|*|
|*|Gitara-2. (1x)
|E|--------------------+-------------------+--------------------+--------------------|
|H|--------------------+-5-----------------+--5^7---------------+--5-----------------|
|G|---9-----------4----+-------------------+--------------------+--------------------|
|D|------0--4--0-----4-+-------------------+--------------------+--------------------|
|A|--------------------+-------------------+--------------------+--------------------|
|E|--------------------+-------------------+--------------------+--------------------|
 

   Gitara-1. (1x)
|E|--------------------+---2---------------+--------------------+--------------------|
|H|-----------3--------+-------------------+--------------------+--------------------|
|G|----2---------------+-------------------+--------------------+--------------------|
|D|----0---------------+-------------------+--------------------+--------------------|
|A|--------------------+-------------------+--------------------+--------------------|
|E|--------------------+-------------------+--------------------+--------------------|
|*|
|*|Gitara-2. (1x)
|E|--------------------+-------------------+--------------------+--------------------|
|H|--------------------+-------------------+--------------------+--------------------|
|G|----5^7-------------+-------------------+--------------------+--------------------|
|D|--------------------+-------------------+--------------------+--------------------|
|A|--------------------+-------------------+--------------------+--------------------|
|E|--------------------+-------------------+--------------------+--------------------|


************************************************************************************


Tema 4


   Gitara-1. (1x)
|E|--------------------+-------------------+--------------------+--------------------|
|H|--------------------+-5-----------------+--------------------+-5------------------|
|G|---4-4--4-4-4-------+-4-----------------+--4-4--4-4-4--------+-4------------------|
|D|---4-4--4-4-4-------+-----2---2---2-----+--4-4--4-4-4--------+-----2---2---2------|
|A|--------------------+-----2---2---2-----+--------------------+-----2---2---0------|
|E|--------------------+-------------------+--------------------+--------------------|


   Gitara-1. (1x)
|E|--------------------+-------------------+--------------------+--------------------|
|H|--------------------+-5-----------------+--------------------+-5------------------|
|G|---4-4--4-4-4-------+-4-----------------+--4-4--4-4-4--------+-4------------------|
|D|---4-4--4-4-4-------+-----2---2---2-----+--4-4--4-4-4--------+-----2--------------|
|A|--------------------+-----2---2---0-----+--------------------+-----2--------------|
|E|--------------------+-------------------+--------------------+--------------------|

*************************************************************************************


Solo


   Gitara-1. (1x)
|E|------7-7----7-10-7-+---------------+-7-7----7-10-7------+7------7^10^7-----------|
|H|-(10)-----10--------+-----------10--+-----70---------10--+--7-10--------10-10-----|
|G|--------------------+---------------+--------------------+--------------------7---|
|D|--------------------+---------------+--------------------+----------------------9-|
|A|--------------------+---------------+--------------------+------------------------|
|E|--------------------+---------------+--------------------+------------------------|


   Gitara-1. (1x)
|E|--7-7----7-10-12-10-+-12^14---------+12^14-12^14^12-10----------+-----------------|
|H|------10------------+---------------+------------------12-10-12-+12-10------------|
|G|--------------------+---------------+---------------------------+------9-7--------|
|D|--------------------+---------------+---------------------------+----------9------|
|A|--------------------+---------------+---------------------------+-----------------|
|E|--------------------+---------------+---------------------------+-----------------|


   Gitara-1. (1x)
|E|------------------7------------------------+----------------------------------------|
|H|---------------7-----7--10--7--------------+--7-------------------------------------|
|G|---7--9--9^11------------------9-----------+-----7--9--7-----7----------------------|
|D|-------------------------------------------+--------------9-----7--9--7-------------|
|A|-------------------------------------------+-----------------------------9----------|
|E|-------------------------------------------+----------------------------------------|


   Gitara-1. (1x)
|E|-------------------------------------------+-----------7---------7------------------|
|H|-------------------------------------------+--------7-----7--10---------------------|
|G|-------------7---9---7-------7-------------+--9^11----------------------------------|
|D|---7--8--9---------------9-----------------+----------------------------------------|
|A|-------------------------------------------+----------------------------------------|
|E|-------------------------------------------+----------------------------------------|


   Gitara-1. (1x)
|E|--------------------+7-------------------------+----------------+-----------------|
|H|-10^12---10^12---10-+--10-7--------------------+----------------+-----------------|
|G|--------------------+-------9^11-11^9-7---9----+--7--9--7-------+----------7------|
|D|--------------------+-------------------9---9--+-----------9----+-9--7--9-----9---|
|A|--------------------+--------------------------+----------------+-----------------|
|E|--------------------+--------------------------+----------------+-----------------|
 

   Gitara-1. (1x)
|E|----------------------------+-------+---------------------------------+-----------|
|H|----------------------------+-------+-10^12-12-12-12-12^10--7---------+-----------|
|G|--9^11-11-11-11-11^9--7-----+-------+---------------------------------+-----------|
|D|----------------------------+-------+---------------------------------+-----------|
|A|----------------------------+-------+---------------------------------+-----------|
|E|----------------------------+-------+---------------------------------+-----------|
 

   Gitara-1. (1x)
|E|----------------------------+-------+---------------------------------+-----------|
|H|----------------------------+-------+---------------------------------+-----------|
|G|--9^11-11-11-11-11^9--7-----+----7--+----9^11^9--7--------------------+-----------|
|D|----------------------------+-------+----------------9--9--9----------+-----------|
|A|----------------------------+-------+---------------------------------+-----------|
|E|----------------------------+-------+---------------------------------+-----------|


   Gitara-1. (1x)
|E|----------------------------+-------+---10^12-12-12-12-12^10--7-------+-----------|
|H|--10^12-12-12-12-12^10--7---+-------+---------------------------------+-----------|
|G|----------------------------+-------+---------------------------------+-----------|
|D|----------------------------+-------+---------------------------------+-----------|
|A|----------------------------+-------+---------------------------------+-----------|
|E|----------------------------+-------+---------------------------------+-----------|
 

   Gitara-1. (1x)
|E|----------------------------+-------+---------------------------------+-----------|
|H|--10^12-12-12-12-12^10--7---+----7--+----9^11^9--7--------------------+-----------|
|G|----------------------------+-------+----------------9--9--9----------+-----------|
|D|----------------------------+-------+---------------------------------+-----------|
|A|----------------------------+-------+---------------------------------+-----------|
|E|----------------------------+-------+---------------------------------+-----------|
 

   Gitara-1 & Gitara-2. (1x)
|E|--10^12-12-12-12-12^10--7---+-------+--10^12-12-12-12-12^10--7--------+-----------|
|H|----------------------------+-------+---------------------------------+-----------|
|G|----------------------------+-------+---------------------------------+-----------|
|D|----------------------------+-------+---------------------------------+-----------|
|A|----------------------------+-------+---------------------------------+-----------|
|E|----------------------------+-------+---------------------------------+-----------|
 

   Gitara-1 & Gitara-2. (1x)
|E|--10^12--10--12--10--10^12--12^10--7-----+-10^12--10--12--10--10^12--12^10--7-------|
|H|-----------------------------------------+------------------------------------------|
|G|-----------------------------------------+------------------------------------------|
|D|-----------------------------------------+------------------------------------------|
|A|-----------------------------------------+------------------------------------------|
|E|-----------------------------------------+------------------------------------------|
 

   Gitara-1 & Gitara-2. (1x)
|E|--10^12--10--12--10--10^12--12^10--7-----+--10--7-----------------------------------|
|H|-----------------------------------------+---------10--7----------------------------|
|G|-----------------------------------------+------------------------------------------|
|D|-----------------------------------------+------------------------------------------|
|A|-----------------------------------------+------------------------------------------|
|E|-----------------------------------------+------------------------------------------|
 

   Gitara-1 & Gitara-2. (1x)
|E|-----------------------------------------+------------------------------------------|
|H|--10^12--10--12--10--10^12--12^10--7-----+-10^12--10--12--10--10^12--12^10--7-------|
|G|-----------------------------------------+------------------------------------------|
|D|-----------------------------------------+------------------------------------------|
|A|-----------------------------------------+------------------------------------------|
|E|-----------------------------------------+------------------------------------------|


   Gitara-1 & Gitara-2. (1x)
|E|-----------------------------------------+------------------------------------------|
|H|--10^12--10--12--10--10^12--12^10--7-----+-10--7-----7------------------------------|
|G|-----------------------------------------+--------9-----9--7--9---------------------|
|D|-----------------------------------------+-----------------------9--7---------------|
|A|-----------------------------------------+------------------------------------------|
|E|-----------------------------------------+------------------------------------------|
 

   Gitara-1 & Gitara-2. (1x)
|E|-------------------+--------------------+----------------------+------------------|
|H|----7--------------+--------------------+--7-------------------+------------------|
|G|----7--------------+--------------------+--7-------------------+------------------|
|D|-------------------+--------------------+----------------------+------------------|
|A|-------------------+-------7--9--7--9---+----------------------+------------------|
|E|-------------------+--------------------+----------------------+------------------|
 
*************************************************************************************


Tema 5


   Gitara-1. (1x)
|E|--------------------+-------------------+--------------------+--------------------|
|H|--------------------+-5-----------------+--------------------+-5------------------|
|G|---4-4--4-4-4-------+-4-----------------+--4-4--4-4-4--------+-4------------------|
|D|---4-4--4-4-4-------+-----2---2---2-----+--4-4--4-4-4--------+-----2---2---2------|
|A|--------------------+-----2---2---2-----+--------------------+-----2---2---2------|
|E|--------------------+-------------------+--------------------+--------------------|


   Gitara-1. (1x)
|E|--------------------+-------------------+--------------------+--------------------|
|H|--------------------+-5-----------------+--------------------+-5------------------|
|G|---4-4--4-4-4-------+-4-----------------+--4-4--4-4-4--------+-4------------------|
|D|---4-4--4-4-4-------+-----2---2---2-----+--4-4--4-4-4--------+-----2---2---2------|
|A|--------------------+-----2---2---2-----+--------------------+-----2---2---0------|
|E|--------------------+-------------------+--------------------+--------------------|

&&&&&&&&&&&&&&&&&&&&&&&&&&&&&&&&&&&&&&&&&&&&&&&&&&&&&&&&&&&&&&&&&&&&&&&&&&&&&&&&&&&&

 
Uvod,
Tema 1, Tema 2, Tema 3,
Tema 1, Tema 2, Tema 3,
Tema 4, Solo dionica, Tema 5,
Tema 1... (nekoliko puta)
*************************************************************************************

-Broj koji je u zagradi treba da bude u prethodnom taktu:
          |E|---(7)-9-----|

-HammerOn-Pulloff je oznac"en apostrofom:
             ---7?9?7----

-Znakom ^ je oznac"en bending:
         ----10^12---12^10----

***VERZIJA 2***
Home         : http://www.smak.org.yu

  Intro:
E|----------------|----------------|
B|----------------|----------------|
G|------9-------7-|------4---------|3x
D|99-9-99-77-7-77-|2--4--4-4-------|
A|99-9-97-77-7-75-|2--4--2-4-------|
E|77-7-7--55-5-5--|0--2----2-------|

E|----------------|----------------|--------|----------------||
B|----------------|----------------|--------|----------------||
G|------4---------|------4---------|------4-|----------------||
D|2--4--4-4-------|2--4--4-4-------|2--4--4-|4--------------2||
A|2--4--2-4-------|2--4--2-4-------|2--4--2-|4---------------||
E|0--2----2-------|0--2----2-------|0--2----|2---------------||

  Riff 1:
E|----------------|----------------|----------------|----------------||
B|-----------2----|-----------2----|-----------2----|-----2----------||
G|----4--2424-242-|----4--2424-2---|----4--2424-242-|--4-4-42--------||2x
D|4-4-------------|4-4-------------|4-4-------------|4-------4-------||
A|----------------|----------------|----------------|----------------||
E|----------------|----------------|----------------|----------------||

  Riff 2:
E|----------------||
B|----------------||
G|----------------||4x
D|-4--47-4--------||
A|--67--6-7--77---||
E|0-------0--00---||

  Solo 1 (1. guitar):
E|------------------------|--------------------------|------------0---|
B|------12----12p10-------|12^1412p10----------------|------------0---|
G|----11-----------11-----|----------1211979^119-76--|------9-----0---|
D|1314--------------------|------------------------97|9---9--7----9---|
A|------------------------|--------------------------|-----9------7---|
E|------------------------|--------------------------|--------0--0----|

E|------------------------|--------------------------|-----------------|
B|------12----12p10-------|12^1412p10----------------|-----------------|
G|----11-----------11-----|----------1211979^119-76--|------7-7h9------|
D|1314--------------------|------------------------97|9---9--9---------|
A|------------------------|--------------------------|-----9-----------|
E|------------------------|--------------------------|-----------------|

E|---------------------|-----------------||
B|7----------5---------|3----------------||
G|9^11-------7^9-------|5^7--------------||
D|---------------------|-----------------||
A|---------------------|-----------------||
E|---------------------|-----------------||

  Solo 1. (2. guitar):
E|----------------|----------------|--------0--00---|----------------|
B|----------------|----------------|--------0--00---|----------------|
G|----2-------5---|----------------|----2---0--00---|----2-------5---|
D|--4---4---7---7-|----5-------3---|--4---4-4--44---|--4---4---7---7-|
A|2-------5-------|--7---7---5---5-|2-------2--22---|2-------5-------|
E|----------------|5-------3-------|--------0--00---|----------------|

E|----------------|----------------|----------------|2---2---2---2---||
B|----------------|----------------|----------------|3---3---3---3---||
G|----------------|----2-------2---|----------------|2---2---2---2---||
D|----5-------3---|--4---4---2---2-|----4-------2---|0---0---0---0---||
A|--7---7---5---5-|2-------0-------|--4---4---2---2-|----------------||
E|5-------3-------|----------------|2-------0-------|----------------||

  Solo 2 (accomp.):               Last loop:
E|----------------|              |----------------|-------------||
B|----------------|              |----------------|-------------||
G|4--444-4--------| free impro.  |4--444-4----2---|-------------||
D|4--444-4-2-22---|              |4--444-4-2-22---|-------------||
A|2--222-2-2-22---|              |2--222-2-2-20---|-------------||
E|---------0-00---|              |---------0-0----|-------------||

  Form: Intro|Riff1|Riff2|Solo1|Riff1|Riff2|Solo1|Solo2|Riff1|Riff1|Fade out
   

***VERZIJA 2***
Transkripcija:  Aca Urosevic - Aca_Urosevic@yahoo.com
Album        :  Live Without Audience - 1997


Ovo je najpoznatiji od 22 instrumentala koje je Tocak 
posvetio liku koji je upoznao njega i Kepu i tako postao
zasluzan za formiranje Smaka.

Figura1:

   Em       Am      G      Em       Am      G 
E----------------------------------------------|
H----------------------------------------------|
G------2--0-2-0-2-4-0-2-0------2--0-2-0-2-4-0--|
D--2-2---------------------2-2-----------------|
A----------------------------------------------|
E----------------------------------------------|

   Em       Am      G      Em  Am        Em       
E-------------------------------------------------|
H-------------------------------------------------|
G------2--0-2-0-2-4-0-2-0----2-2-4-0^2^0---0------|
D--2-2---------------------2-------------2---2-x--|
A-------------------------------------------------|
E-------------------------------------------------| 

Figura2

   Em       Am      G      Em       Am      G 
E---------------------------------------------------|
H---------------------------------------------------|
G------2--0-2-0-2-4-0-2-0------2--0-2-0-2-4-0-------|
D--2-2-2--0-2-0-2-4-0-2-0--2-2-2--0-2-0-2-4-0-4-0-4-|
A--2-2---------------------2-2----------------------|
E---------------------------------------------------|

  Em       Am      G      Em  Am        Em       
E----------------------------------------------|
H----------------------------------------------|
G------2--0-2-0-2-4-0-2-0----2-2-4-2-0----0----|
D--2-2-2--0-2-0-2-4-0-2-0--2-2-2-4-2-0--2-0-2--|
A--2-2---------------------2------------2---2--|
E----------------------------------------------|

Figura3

   Am               G         Am             G 
E-----------------------------------------------|
H------1--0-1-0-1-3-0-1-0-----0^1--0-1-0-1-3-0--|
G--2-2--------------------0-0-------------------|
D-----------------------------------------------|
A-----------------------------------------------|
E-----------------------------------------------| 
       Am             G       Am        Em 
E------------------------------------------| 
H------0^1--0-1-0-1-3-0-1-0---1-1-3-1-0----|
G--0-0----------------------0-----------0--|
D------------------------------------------| 
A------------------------------------------| 
E------------------------------------------|

Sad se pojaca volume na gitari

Figura2 sa malom varijacijom

   Em        Am      G      Em        Am      G 
E------------------------------------------------|
H------------------------------------------------|
G------2/--0-2-0-2-4-0-2-0------2/--0-2-0-2-4-0--|
D--2-2-2/--0-2-0-2-4-0-2-0--2-2-2/--0-2-0-2-4-0--|
A--2-2----------------------2-2------------------|
E------------------------------------------------|

  Em         Am      G      Em  Am       Em       
E--------------------------------------------|
H--------------------------------------------|
G------2/--0-2-0-2-4-0-2-0----2-2-4-2-0------|
D--2-2-2/--0-2-0-2-4-0-2-0--2-2-2-4-2-0--2---|
A--2-2----------------------2------------2---|
E--------------------------------------------|

Figura4:

   Em  Am           G      Em  Am           G         
E----------------------------------------------|
H----------------------------------------------|
G----------------------------------------------|
D----------------------------------------------|
A--2-2-7--5-7-5-7s9-5s7s5--2-2-7--5-7-5-7s9-5--|
E--0-0-5--3-5-3-5s7-3s5s3--0-0-5--3-5-3-5s7-3--|
 
   Em  Am           G      Em   Am      Em             
E------------------------------------------|
H------------------------------------------|
G------------------------------------------|
D------------------------------------------|
A--2-2-7--5-7-5-7s9-5s7s5--2--7-7-9-7s5-2--|
E--0-0-5--3-5-3-5s7-3s5s3--0--5-5-7-5s3-0--|

Figura 5:

   D
E-------------------------------------------------|
H---------------------3-3--3-3--------------------|
G---------------------2-2--2-2--------------------|
D----2-----2-5---2---------------2-----2-5---2----|
A--5---4-5-----4---5-----------5---4-5-----4---5--|
E-------------------------------------------------|

   D
E----------------------------------------------|
H------------------------3---------------------|
G----------------------2-----------------------|
D----2-----2-5---2---4--------2-----2-5---2----|
A--5---4-5-----4---5--------5---4-5-----4---5--|
E----------------------------------------------|


Figura 6:
   A        C     G            F           A           D 
E--------5--5-----5/\-------------------------------------|
H------5------8-5----6-5----------------------------------|
G--6-7-------------------7-5-5^7-7-5-4---4--------5-7-----|
D--------------------------------------7---7--5^7---------|
A------------------------------------------------------5--|
E---------------------------------------------------------|

   A        C     G                  F           A        D
E--------5--5-----5/\-5-----------------------------------------|
H------5------8-5-------8-6-5-----------------------------------|
G--6^7-------------------------7-5-5^7-7-5-4---4--------5-5^7---|
D--------------------------------------------7---7--5^7---------|
A---------------------------------------------------------------|
E---------------------------------------------------------------|

   Em    D     C
E---------------------|
H---------------------|
G--7s9~~-5s7~~-4s5~~--|
D---------------------|
A---------------------|
E---------------------|


Zatim se ponavljaju figure 2, 4, 5 i 6, samo sa malo drugacijim
varijacijama.

A sad najzaj***niji deo:

   A            G      A                 G   
E-------------8-------------------8-------------------------------|
H--10-10-8-10---10~--8^10-10-8-10---10-8^10---8-10-10-8-8^10^8----|
G-------------------------------------------9------------------9--|
D-----------------------------------------------------------------|
A-----------------------------------------------------------------|
E-----------------------------------------------------------------|

  A            G              A                      G              
E-------------8^10-8-10s12~~--10^12-10/\------------------------------------|
H--10-10-8-10----------------------------13-10-------10-10------------------|
G----------------------------------------------12-9--------12---------------|
D--------------------------------------------------------------14s12-10-----|
A-----------------------------------------------------------------------12--|
E---------------------------------------------------------------------------|

   A                         G         A                 G                  A
E----------------------------------------------------------------------------|
H----------------------------------------------------------------------------|
G--------9-11/11\-9---------------9/9\---------------------------------------|
D--10^12------------12-10----9s10------12-10---------------------------------|
A-------------------------12-----------------12-10---------------------------|
E--------------------------------------------------12-10-8^10^8-5s7-8-12s10-8|

   A          G  A               G   A          G    A          G 
E----------------------------------|------------------------------|
H----------------------------------|------------------------------|
G--7/7-7-7-7\-5--12/12-12-12-12\-9-|-7/7-7-7-7\-5s7--7^9^7--------|
D----------------------------------|-----------------------10-7-7-|
A----------------------------------|------------------------------|
E----------------------------------|------------------------------|
   A               G  A               G     A               G  A          G 
E----------------------------------------|----------------------------------|
H----------------------------------------|----------------------------------|
G--12/12-12-12-12\-9--17/17-17-17-17\-14-|--12/12-12-12-12\-9--7^9^7--------|
D----------------------------------------|---------------------------10-7-7-|
A----------------------------------------|----------------------------------|
E----------------------------------------|----------------------------------|
 
   A               G   A               G
E-----------------------------------------|
H-----------------------------------------|
G--17/17-17-17-17\-14--17/17-17-17-17\-14-|
D-----------------------------------------|
A-----------------------------------------|
E-----------------------------------------|

   A                 G          A                 G     
E--------------------------------------------------------------|
H--13^15-13-15-13-15-13^15^13---13^15-13-15-13-15-13^15^13-----|
G-----------------------------14---------------------------14--|
D--------------------------------------------------------------|
A--------------------------------------------------------------|
E--------------------------------------------------------------|

   A                  G          A           G
E---------------------------------------------|
H--13^15-13-15-13-15-13^15^13----13-----------|
G-----------------------------14----14-12^14--|
D---------------------------------------------|
A---------------------------------------------|
E---------------------------------------------|

   A                    G          A                    G
E--------------------------------------------------------------------|
H--------------------------------------------------------------------|
G--12^14-12-14-12-14-12-12^14^12---12^14-12-14-12-14-12-12^14^12-----|
D--------------------------------14------------------------------14--|
A--------------------------------------------------------------------|
E--------------------------------------------------------------------|

   A                    G            A                 
E----------------------------------------------------------|
H----------------------------------------------------------|
G--12^14-12-14-12-14-12-12^14^12-----12--------------------|
D--------------------------------14-----14-12^14^12--------|
A---------------------------------------------------15-12--|
E----------------------------------------------------------|

Prelaz:
   C
E--8---8--8--8---8---|
H--8---8--8--8---8---|
G--9---11-11-11--9---|
D--10--10-10-10--10--|
A--10--10-10-10--10--|
E--8---8--8--8---8---|


Potom se ponove figura 2 i 4, zatim jedan malo priguseniji deo:

   Em       Am      G      Em       Am      G     
E----------------------------------------------------|
H----------------------------------------------------|
G----------------------------------------------------|
D-------------------------------------------------0--|
A-----------------2-----------------------2-----2----|
E--0-0-5--3-5-3-5---3-5-3--0-0-5--3-5-3-5---3-3------|

   Em       Am      G      Em   Am        Em  
E------------------------------------------------|
H------------------------------------------------|
G------------------------------------------------|
D------------------------------------------------|
A-----------------2---------------2--------------|
E--0-0-5--3-5-3-5---3-5-3--0--5-5---3^5^3-0-3-0--|

Onda opet figura 2 i kraj!

Objasnjenje:
s-slide
^-hammer on ili pull off
/-bend
/\-bend/release(zavijanje)
/17-17-17-17\ - zica se okida dok je zavijena, pa se onda opusti
~-vibrato
x- prigusena zica

Napomena: verovatno nisam sve skinuo kao u originalu, jer nisam imao 
ni vremena ni zivaca da celu pesmu skidam notu po notu. 
Ali, zvuci kako treba.

Na ovom albumu pesma je u Em, pa sam je tako i skidao.Medjutim, cuo sam na
radiju neku stariju verziju i ona je bila u Fism. Moguce je da se pesma
u stvari svira iz Fism, samo je ovde svirano sa spustenim stimom. U tom
slucaju, sve ovo bi trebalo prebaciti u Fism. Figure 4, 5, 6 i solo
svirajte 2 praga nize, a za ostalo se nekako snadjite.