Smak - Daire

Home         : http://www.smak.org.yu


  Intro:        A part:
E|--------|  E|----------------|----------------|----------------|
B|--------|  B|----------------|----------------|----------------|
G|7-5-4-2-|  G|--------------5-|--------------5-|--------------5-|
D|--------|  D|---2------0--4-5|---2------0--4--|---2------0--4-5|
A|9-7-5-3-|  A|--2--2-2-2-25---|--2--2-2-2-25---|--2--2-2-2-25---|
E|--------|  E|0-----0-3-------|0-----0-3-------|0-----0-3-------|

E|----------------|----------------|----------------|----------------|
B|----------------|----------------|----------------|----------------|
G|--------7-5-4-2-|--------------5-|--------------5-|--------------5-|
D|---2------------|---2------0--4-5|---2------0--4--|---2------0--4-5|
A|--2--2--9-7-5-3-|--2--2-2-2-25---|--2--2-2-2-25---|--2--2-2-2-25---|
E|0-----0---------|0-----0-3-------|0-----0-3-------|0-----0-3-------|

E|----------------|--------|----------------|-----------------||
B|----------------|--------|3--2----2-22----|-----------------||
G|--------------5-|--------|2--2----2-22----|--------4-44-----||
D|---2------0--4--|---2----|2--2----5-55----|4-44----4-44-----||
A|--2--2---2-25---|--2--2--|0--0----0-00----|4-44----2-22-----||
E|0-----0-3-------|0-----0-|--------3-33----|2-22-------------||

  Riff 1:                 B part:
E|----------------|    E|----------------|----------------|----------------|
B|----------------|    B|-----------3----|3---------------|-----------3----|
G|----------------|4x  G|--------5--2----|0---------------|--------5--2----|
D|----------------|    D|5--2-------0----|2---------------|5--2-------0----|
A|-020--0-457--7-7|    A|5--2----5-------|3--------020--0-|5--2----5-------|
E|3---23--000--0-0|    E|3--0------------|--------3---23--|3--0------------|

E|----------------|----------------|----------------|----------------|
B|3---------------|-----------3----|3---------------|-----------3----|
G|0---------------|--------5--2----|0---------------|--------5--2----|
D|2---------------|5--2-------0----|2---------------|5--2-------0----|
A|3--------020--0-|5--2----5-------|3--------020--0-|5--2----5-------|
E|--------3---23--|3--0------------|--------3---23--|3--0------------|

E|----------------|----------------||
B|3---------------|----------------||
G|0-------4---2---|--------7-5-4-2-||
D|2-------4---2---|2---------------||
A|3-------2---0---|2-------9-7-5-3-||
E|3-------2---0---|0---------------||

  riff 2:
E|---------------|---------------|---------------|---------------|
B|---------------|---------------|---------------|---------------|
G|---------------|---------------|---------------|---------------|
D|---------------|---------------|---------------|---------------|
A|-----------5-7-|---------------|-----------5-7-|---------------|
E|3-3-5-23-0-----|7-7-5-75--3----|3-3-5-23-0-----|7-7-5-75--3----|

E|---------------|---------------|---------------|---------------|
B|---------------|---------------|---------------|---------------|
G|---------------|---------------|---------------|---------------|
D|---------------|---------------|---------------|---------------|
A|-----------5-7-|---------------|-----------5-7-|---------------|
E|3-3-5-23-0-----|7-7-5-75--3----|3-3-5-23-0-----|7-7-5-75--3----|
             
E|---------------|---------------|-------||
B|---------------|---------------|-------||
G|---------------|---------------|7-5-4-2||
D|---------------|---------------|-------||
A|-----------5-7-|---------------|9-7-5-3||
E|3-3-5-23-0-----|7-7-5-75--3----|-------||

  Fine:
E|----------------------------------||
B|----------------------------------||
G|7-5-4-22--------------------------||
D|-------2---------20---------------||
A|9-7-5-30--------0----0-457--------||
E|---------------3---23----0--------||

  Form: Intro|A|Riff1|B|A|Riff1|B|Solo Riff1(6x)|Solo Riff2|A|Riff1|B|Fine|

***VERZIJA 2***
Transkripcija: Ivan Vasic (ivasic@cent.co.yu)
Home         : http://www.tablature.co.yu




Intro & Verses (Part 1)
E--------------------------------------
H--------------------------------------
G----------0----------------------5----
D--------2---2---0------0-------4---4--
A-----2--------2------2---2---5--------
E--0----------------3------------------

prelaz : (Part 2)
E------------------
H------------------
G--9---11---9---7--
D--9---11---9---7--
A--7----9---7---5--
E------------------
*******

Part1
Negde iz daleka, cuju se daire
mesecevom senkom dolaze cigani
             AGFisH Part 3
negde iz dalekaaaaaa

Part 3
E---------------------------------------------------
H---------------------------------------------------
G---------------------------------------------------
D---------------------------2--2--------------------
A---------2-----------------2--2--------------------
E---3--5-----3--2--3--5--2--0--0--------------------


Refren:
Em       D    C    Part3
Isti je u oku sjaj,
Em       D        C   Part3
da li je java il' san
daire dajte mi vi ....
        
***VERZIJA 3***
Transkripcija: Elvis Krupic( CheGuevara1973@aol.com )


Intro: 2x 
E||----------------------||----------------------------------||
B||----------------------||----------------------------------||
G||----------7--5--4--2--||*----------------------------5---*||
D||----------------------||*-------2------------0-----4---4-*||
A||----------9--7--5--3--||------2----2---2---2---2-5--------||
E||----------------------||---0---------0---3----------------||

----------------------------||
----------------------------||
----------------------------||
-------2--------2--4--2--0--||
-----2----2---2-2--4--2--0--||
--0---------0---------------||

Strofa 1 :
                                    3x
||----------------------------------||
||----------------------------------||
||*----------------------------5---*||
||*-------2------------0-----4---4-*||
||------2----2---2---2---2-5--------||
||---0---------0---3----------------||

Negde iz daleka,
Cuju se daire.
Mesecevom rekom,
Dolaze cigani.

----------------|----------------------|----------------------|
----------------|----------------------|----------------------|
----------------|----------------------|------------4---4-----|
-------2--------|--7---7-----5---5-----|--4---4-----4---4-----|
-----2----2---2-|--7---7-----5---5-----|--4---4-----2---2-----|
--0---------0---|--5---5-----3---3-----|--2---2---------------|

Negde iz daleka...

Riff:
                                 2x                    
|--------------------------------||------------------------------|
|--------------------------------||------------------------------|
|*------------------------------*||------------------------------|
|*------------------------------*||------------------------------|
|-------2-------0---4h5h7~--7~---||------2-------0---4h5h7~--7~--|
|---3-5---3-2-3---2---------0~---||--3-5---3-2-3---2---------0~--|

Refren: 2X
|-------------------------|-----------------------------||
|-------------------------|-----------------------------||
|*-------------7---7---7--|--0---0---------------------*||
|*--2---2---2--7---7---7--|--2---2---------------------*||
|---2---2---2--5---5---5--|--3---3---------2-------0----||
|---0---0---0-------------|------------3-5---3-2-3---2--||

Izvire u oku sjaj,
Da li je java il' san,
Daire dajte mi vi,

|------------------------|----------------------|
|------------------------|----------------------|
|-------------7---7---7--|----------------------|
|--2---2---2--7---7---7--|--10--------9----7----|
|--2---2---2--5---5---5--|--10--------9----7----|
|--0---0---0-------------|--8---------7----5----|

Navire pesma u meni.

Intro 2:
|-----------------------|
|-----------------------|
|-----------------------|
|--2--------2--4--2--0--|
|--2--------2--4--2--0--|
|--0--------------------|
                                   2x                             
|----------------------------------||----------------------------|
|----------------------------------||----------------------------|
|*----------------------------5---*||----------------------------|
|*-------2------------0-----4---4-*||-------2--------2--4--2--0--|
|------2----2---2---2---2-5--------||-----2----2---2-2--4--2--0--|
|---0---------0---3----------------||--0---------0---------------|

Strofa 2:
                                    3x
||----------------------------------||
||----------------------------------||
||*----------------------------5---*||
||*-------2------------0-----4---4-*||
||------2----2---2---2---2-5--------||
||---0---------0---3----------------||

Fenjeri se pale,
Vatra je u ljudima.
Orosene lale,
Leze na grudima.

----------------|----------------------|----------------------|
----------------|----------------------|----------------------|
----------------|----------------------|------------4---4-----|
-------2--------|--7---7-----5---5-----|--4---4-----4---4-----|
-----2----2---2-|--7---7-----5---5-----|--4---4-----2---2-----|
--0---------0---|--5---5-----3---3-----|--2---2---------------|

Fenjeri se pale...

Riff:
                                 2x                               
|--------------------------------||------------------------------|
|--------------------------------||------------------------------|
|*------------------------------*||------------------------------|
|*------------------------------*||------------------------------|
|-------2-------0---4h5h7~--7~---||------2-------0---4h5h7~--7~--|
|---3-5---3-2-3---2---------0~---||--3-5---3-2-3---2---------0~--|

Refren: 2X
|-------------------------|-----------------------------||
|-------------------------|-----------------------------||
|*-------------7---7---7--|--0---0---------------------*||
|*--2---2---2--7---7---7--|--2---2---------------------*||
|---2---2---2--5---5---5--|--3---3---------2-------0----||
|---0---0---0-------------|------------3-5---3-2-3---2--||

Izvire u oku sjaj,
Da li je java il' san,
Daire dajte mi vi,

|------------------------|----------------------|
|------------------------|----------------------|
|-------------7---7---7--|----------------------|
|--2---2---2--7---7---7--|--10--------9----7----|
|--2---2---2--5---5---5--|--10--------9----7----|
|--0---0---0-------------|--8---------7----5----|

Navire pesma u meni.

Riff 2:
------------------------------|------------------------------|
------------------------------|------------------------------|
------------------------------|------------------------------|
------------------------------|------------------------------|
------2-------0---4h5h7-------|------2-------0---4h5h7-------|
--3-5---3-2-3---2---------0---|--3-5---3-2-3---2---------0---|

------------------------------|------------------------------|
------------------------------|------------------------------|
------------------------------|------------------------------|
------------------------------|------------------------------|
------2-------0---4h5h7-------|------2-------0---4h5h7-------|
--3-5---3-2-3---2---------0---|--3-5---3-2-3---2---------0---|
                                                                               
--------------------------|------------------------|--------------------------|
--------------------------|------------------------|--------------------------|
--------------------------|------------------------|--------------------------|
--------------------------|------------------------|--------------------------|
--------------------5--7--|------------------------|--------------------5--7--|
--3--3--5--2-3---0--------|--7--7--5--3-5~----3----|--3--3--5--2-3---0--------|

------------------------|--------------------------|------------------------|
------------------------|--------------------------|------------------------|
------------------------|--------------------------|------------------------|
------------------------|--------------------------|------------------------|
------------------------|--------------------5--7--|------------------------|
--7--7--5--7-5~----3----|--3--3--5--2-3---0--------|--7--7--5--3-5~----3----|

--------------------------|------------------------|--------------------------|
--------------------------|------------------------|--------------------------|
--------------------------|------------------------|--------------------------|
--------------------------|------------------------|--------------------------|
--------------------5--7--|------------------------|--------------------5--7--|
--3--3--5--2-3---0--------|--7--7--5--7-5~----3----|--3--3--5--2-3---0--------|
                                                                             
------------------------|--------------------------|------------------------|
------------------------|--------------------------|------------------------|
------------------------|--------------------------|------------------------|
------------------------|--------------------------|------------------------|
------------------------|--------------------5--7--|------------------------|
--7--7--5--3-5~----3----|--3--3--5--2-3---0--------|--7--7--5--7-5~----3----|

Intro 2 :
|-----------------------|
|-----------------------|
|-----------------------|
|--2--------2--4--2--0--|
|--2--------2--4--2--0--|
|--0--------------------|
                                   2x                             
|----------------------------------||----------------------------|
|----------------------------------||----------------------------|
|*----------------------------5---*||----------------------------|
|*-------2------------0-----4---4-*||-------2--------2--4--2--0--|
|------2----2---2---2---2-5--------||-----2----2---2-2--4--2--0--|
|---0---------0---3----------------||--0---------0---------------|

Strofa 3 :
                                    3x
||----------------------------------||
||----------------------------------||
||*----------------------------5---*||
||*-------2------------0-----4---4-*||
||------2----2---2---2---2-5--------||
||---0---------0---3----------------||

Negde iz daleka,
Cuju se daire.
Mesecevom rekom,
Dolaze cigani.

----------------|----------------------|----------------------|
----------------|----------------------|----------------------|
----------------|----------------------|------------4---4-----|
-------2--------|--7---7-----5---5-----|--4---4-----4---4-----|
-----2----2---2-|--7---7-----5---5-----|--4---4-----2---2-----|
--0---------0---|--5---5-----3---3-----|--2---2---------------|

Negde iz daleka...

Riff:
                                 2x                               
|--------------------------------||------------------------------|
|--------------------------------||------------------------------|
|*------------------------------*||------------------------------|
|*------------------------------*||------------------------------|
|-------2-------0---4h5h7~--7~---||------2-------0---4h5h7~--7~--|
|---3-5---3-2-3---2---------0~---||--3-5---3-2-3---2---------0~--|

Refren: 2X
|-------------------------|-----------------------------||
|-------------------------|-----------------------------||
|*-------------7---7---7--|--0---0---------------------*||
|*--2---2---2--7---7---7--|--2---2---------------------*||
|---2---2---2--5---5---5--|--3---3---------2-------0----||
|---0---0---0-------------|------------3-5---3-2-3---2--||

Izvire u oku sjaj,
Da li je java il' san,
Daire dajte mi vi,

|------------------------|----------------------|
|------------------------|----------------------|
|-------------7---7---7--|----------------------|
|--2---2---2--7---7---7--|--10--------9----7----|
|--2---2---2--5---5---5--|--10--------9----7----|
|--0---0---0-------------|--8---------7----5----|

Navire pesma u meni.

Kraj:
|-----------|-----------------------|
|-----------|-----------------------|
|--0--------|--------------2--------|
|--2--------|--2--4--2--0--2--------|
|--2--------|--2--4--2--0--0--------|
|--0--------|-----------------------|
                                                  
-----------------------------|------------------||
-----------------------------|------------------||
-----------------------------|------------------||
-----------------------------|------------------||
------2-------0--------------|------------------||
--3-5---3-2-3---2-0-0-0------|------------------||