Smak - H-rizl

Home         : http://www.smak.org.yu


  A riff:
E|------------------|--------0-0------|-------------------|
B|---23p2------0----|---23p2--7---0---|----23p2------0----|
G|--4----4p2--2---2-|--4--------76----|---4----4p2--2---2-|
D|-4---------4-----4|-4------------7--|--4---------4-----4|
A|2-----------------|2--------------0p|h2-----------------|
E|----------2----2--|-----------------|-----------2----2--|

E|--------0-0-----|--------||
B|---23p2--7---0--|--------||
G|--4--------76---|--------||2x
D|-4------------7-|-4-0----||
A|2--------------0|7-7-4--0||
E|----------------|-----75-||

  B riff
E|------------------------||
B|-----0-----------0------||
G|---0--5--------0--------||2x
D|--7-7-5--5----7-7-7--5--||
A|-7----3--5---7----7--5--||
E|5--------3--5-----0--3--||

  C1 riff:
E|------------------|--------------0--|------------------|----------|----------------||
B|--0---3---3--3----|--0---3---3--3-2-|--0---3---3--3----|--0---3---|3---2---1---0---||
G|---2--0--32--2---2|---2--0--32-3---5|---2--0--32--2---2|---2--0--3|2---2---2---2---||
D|-4----0--30--0--2-|-4----0--30------|-4----0--30--0--2-|-4----0--3|0---------------||
A|2-----2--3-----0--|2-----2--3-------|2-----2--3-----0--|2-----2--3|----------------||
E|----0--1----------|----0--1---------|----0--1----------|----0--1--|----------------||

  D riff:                                Last loop:
E|---------------|----------------|    |---------------|----------------||
B|-3-------------|-5--------------|    |-3-------------|-5--------------||
G|-4------2------|-5-------1---4--|3x  |-4------2------|-5------11114444||
D|-4------2------|-5-------2---4--|    |-4------2------|-5------22224444||
A|2-------2------|---------2---4--|    |2-------2------|--------22224444||
E|-------3-------|0-------0---2---|    |-------3-------|0-------00002222||

  C2 riff:
E|--------------|--------------0--|------------------|----------|----------------||
B|------3--3----|--0---3---3--3-2-|--0---3---3--3----|--0---3---|3---2---1---0---||
G|------2--2---2|---2--0--32-3---5|---2--0--32--2---2|---2--0--3|2---2---2---2---||
D|5-53-30--0--2-|-4----0--30------|-4----0--30--0--2-|-4----0--3|0---------------||
A|5-53-3-----0--|2-----2--3-------|2-----2--3-----0--|2-----2--3|----------------||
E|3-31-1--------|----0--1---------|----0--1----------|----0--1--|----------------||

  Form: A riff|B riff|C1 riff|A riff|D riff|C2 riff|A riff|B riff|C1 riff||