Smak - Idi

Home         : http://www.smak.org.yu

  (D tune)

  Riff 1:
d|----0-------0---|----------------|
A|----------------|------0-----0---|
F|------4-------7-|----6---------2-|4x
C|--4-------7-----|----------0-----|
G|2-------5-------|--7-------------|
D|----------------|5-------3-------|

  Riff 2:
|------------------------------|---------------------------|
|------------------------------|-----------------5---------|
|------------------------------|-----------------4---------|2x
|----22h3tp2tp0t----22h3tp2tp0t|----22h3tp2tp0t--2---------|
|2-2------------2-2------------|2-2--------------2---------|
|------------------------------|---------------0-----------|

  Solo 1:
|--------------------|----------------|--------------------|----------------|
|--------------------|----------------|--------------------|----------------|
|--9^10r9p7-7--------|----------------|--9^10r9p7-7--------|----------------|
|----------9------7--|--9-------------|----------9------7--|----------------|
|---------------9----|----------------|---------------9----|--7-------------|
|--------------------|----------------|--------------------|----------------|

|--------------------|----------------|--------------------|----------------|
|--------------------|----------------|--------------------|----------------|
|--9^10r9p7-7--------|----------------|--9^10r9p7-7--------|----------------|
|----------9------7--|--9-------------|----------9------7--|--7-------------|
|---------------9----|----------------|---------------9----|----------------|
|--------------------|----------------|--------------------|----------------|

|--7-----------9---------|--10------12------------|
|--10^12-------12^14-----|--13^15---15^17---------|
|------------------------|------------------------|2x
|------------------------|------------------------|
|------------------------|------------------------|
|------------------------|------------------------|

  Solo 2:
|--14----------17--------|--16----------15--------|
|--17^19-------20^22-----|--19^21-------18^20-----|
|------------------------|------------------------|2x
|------------------------|------------------------|
|------------------------|------------------------|
|------------------------|------------------------|

|--14----------12--------|--10----------9---------|-------7---------5---|
|--17^19-------15^17-----|--13^15-------12^14-----|--10^12------9^10----|
|------------------------|------------------------|---------------------|
|------------------------|------------------------|---------------------|
|------------------------|------------------------|---------------------|
|------------------------|------------------------|---------------------|

|-----4--------2---|
|--7^9------5^7----|
|------------------|
|------------------|
|------------------|
|------------------|

  Form: Riff1|Riff2|Riff1|Riff2|Solo1|Riff1|Riff2|Solo2|Riff2|