Smak - Juzni Voz

Home         : http://www.smak.org.yu


  A riff:                               B riff
e|----------------|----------------|  |------------------|------------------|
B|----------------|----------------|  |------------------|------------------|
G|----------------|----------------|  |-----45p4---6-----|-----45p4-754-----|
D|6--------------6|----------------|  |-7p67----767-7----|-7p67----7---7----|
A|-8757857---7----|-8757857-54-----|  |0-----------------|0-----------------|
E|---------00--00-|-----------5----|  |------------------|------------------|

  C part:
|--------7810--8p7---|-13p1213p1210---------------|-------7--------------|
|-------9------------|-------------131015^17------|-10p910-109-----------|
|-10p910-------------|----------------------------|-----------10---------|
|--------------------|----------------------------|-------------9--109---|
|--------------------|----------------------------|----------------------|
|--------------------|----------------------------|----------------------|

|--------------------|----------------|-----------------|----------------|
|------9-------------|-------7--------|-----------------|----------------|
|-10910-10p976-------|9--9-89-8-----7-|5--4-45-4------7-|5--4-45-4-------|
|--------------------|-----------9-9-9|----7--7---------|----7--7--------|
|--------------------|----------------|-----------------|----------------|
|--------------------|----------------|-----------------|----------------|

|--------7810--8p7---|-13p1213p1210---------------|-------7--------------|
|-------9------------|-------------131015^17------|-10p910-109-----------|
|-10p910-------------|----------------------------|-----------1097-------|
|--------------------|----------------------------|---------------10976--|
|--------------------|----------------------------|--------------------87|
|--------------------|----------------------------|----------------------|

  Fine:
|----------------|----------------|----------------|
|----------------|----------------|----------------|
|----------------|----------------|----------------|
|6--------------6|-----------7----|----7-------7---|
|-8757857---7----|-8757857-754----|----5-------4---|
|---------00--00-|----------------|----------------|

  Form: (intro)|A riff|B riff|C|A riff|B riff|C|A riff|B rifF|A riff|Fine