Smak - Mracni Mol

Transkripcija: curle


      Uvod:
  e ------------------------------------------------------------
  B ------------------------------------------------------------
  G --3--6-5----3------5-5-----4--3--6-5----3--6-5--------------
  D --3--6-5--3-3----5-------4----3--6-5--3-3--6-5--------------
  A ---------------4-------3------------------------------------
  E ------------------------------------------------------------

     Riff
  e -----------------------------------
  B -----------------------------------
  G --3--3--6-5----3--6-5--------------
  D --3--3--6-5--3-3--6-5--------------
  A -----------------------------------
  E -----------------------------------

    Riff 2
    Inace se svira u kombinaciji gitara-bas
  e ----------x-x-x-x-x-x-6--------------------------------------------
  B ----------x-x-x-x-x-x---------------------------------------------
  G ----------x-x-x-x-x-x---------------------------------------------
  D ----------x-x-x-x-x-x---------------------------------------------
  A -------4----------------------------------------------------
  E ---4-6-------------------------------------------------------

    Uvodni dio sola(1:40):
  e ----------------------------------------------------------
  B ----------------------------------------------------------
  G --7-7p5--------x-5----pbr7----------5-----5------5--------
  D --------7-7--7-------------7-7-7--7---7-5---7-5-----7--5--
  A ----------------------------------------------------------
  E ----------------------------------------------------------