Smak - Na Balkanu

Transkripcija: Milan Sencanski


riff:
H
--------------------------------
-5p0-4p0-2p0-5p0-4p0-2-2p0h2p0--
--------------------------------
--------------------------------
--------------------------------
--------------------------------
E
Nama na balkanu struji ista krv
sve nas cesto grize jedan jedan isti crv
   C#m
na Balkanu.....

fill:
-----------------------------------------------
----12------------------------------12h14-12---
-------13--11-9------------9-11/13-------------
----------------11----9h11---------------------
-----------------------------------------------
-----------------------------------------------

-----------------------------------------------
----12------------------------------12h14-12---
-------13--11-9------------9-11/13-------------
----------------11----9h11---------------------
-----------------------------------------------
-----------------------------------------------

-9h11-12-12-----------------------------
------------9h10-12-12------------------
-------------------------9h11-11~~------
----------------------------------------
----------------------------------------
----------------------------------------

-9h11-12-12------------16-14-12h14----------------------------------7--
------------9h10-12-12--------------16p14p12h14-------------/7---------
------------------------------------------------/13-11p9-11----9p6-----
-----------------------------------------------------------------------
-----------------------------------------------------------------------
-----------------------------------------------------------------------

E
Nama na Balkanu divlja isti zar
zalogaj,pice, zene,vazna su nam stvar
      C#m
vazna stvar

fill

riff

E
Mi smo na balkanu jasni kao dan
od ?????? pravi niko od nas nije stran,
     C#m
nije stran

fill

solo:


------------------------------------------------
-12-----------------------------12-12h14-12-----
----13-11-9-----------9-9-11/13-----------------
------------11---9h11---------------------------
------------------------------------------------
------------------------------------------------

------------------------------------------------
-12-----------------------------12-12h14-12-----
----13-11-9-----------9-9-11/13-----------------
------------11---9h11---------------------------
------------------------------------------------
------------------------------------------------


-(16)r14-(16)r14-/16-14-14p12-14~~--16-17-16--------16----------------------------------------
----------------------------------------------19-17----19-17----17----------------------------
-------------------------------------------------------------18----18-13--13------------------
------------------------------------------------------------------------16---16-14-16-14------
-----------------------------------------------------------------------------------------16-14
----------------------------------------------------------------------------------------------


-------------|------------------|-------------------------------------------------------------
-------------|------------------|-------------------------------------------------------------
-------------|------------------|-------------------------------------------------------------
-------------|14-16-------------|-------------------------------------------------------------
----14-16-14-|------16-14-------|---16p14-16p14-16p14h16p14h16p14-----------------------------
-16----------|------------16-14-|-------------------------------------------------------------


-------------------------------------------------------------------------|
-17-14----17------17-14----17h19-17--14-17-14------------------priguseno:|
-------16---------------16--------------------13p11-9h11-13--------------|
---------------------------------------------------------14--------------|
-------------------------------------------------------------------------|
-------------------------------------------------------------------------|
   
|-----------------------
|------9----------------
|-9-11--11-9---9--------
|------------11--11-9-11
|-----------------------
|-----------------------
 vrteti se oko ove

--------------|---------------------------------------
--------9-----|---------------------------------------
-9-11-9---11-9|-11b(13)-------------------------------
--------------|---------------------------------------
--------------|---------------------------------------
--------------|---------------------------------------
skale

E
Mi smo na Balkanu zdravi kao dren
uvek samo svoji, nikad tudji plen
   C#m
Na Balkanu

fill do kraja pesme