Smak - Riff Srbija

Transkripcija: http://www.smak.co.yu
Poslala      : djavolica



/=slide up
\=slide down
p=pull of
h=hammer on
^=band
r=release
t=triplet
"=32nd note
x=pause


  riff 1
e -----------------------||
B 3-xx6-------32---------||
G -2xx-5x0---3--3"-------||
D --------05x----3"p2"p0"||
A -----------------------||
E -----------------------|| 4x

riff 2
|-------------------------||
|-------------------------||
|----------------0--------||
|x5"p6"p7-5"p6"p7----75x--||
|--------5----------5---85||
|-----------------8x------|| 4x

riff 3
|---------------------|------------------------------||
|---------------------|------------------------------||
|---------------------|------------------------------||
|----5/7-5\3----5/7-5-|----5/7-5\3-----5"\3"---5\3---||
|-5/8---5----5/8---5--|-5/8---5---3"/5"-----3/5---3/5||
|5----------5---------|5-----------------------------|| 2x

|---------------------|------------------------------||
|---------------------|------------------------------||
|---------------------|------------------------------||
|----3/5-3\1----3/5-3-|----3/5-3\1-----3"\1"---3\1---||
|-3/6---3----3/6---3--|-3/6---3---1"/3"-----1/3---1/3||
|3----------3---------|3-----------------------------|| 2x