Smak - Ulazak U Harem

Transkripcija: R. M. Tocak
Poslao       : Sale (webgazda@pop.transit.ru)
Home         : http://www.tablature.co.yu



Radomir Mihailovic Tocak
E||--------------------------|--------------------------|
B||--------------------------|--------------------------|
G||--2--3--2--1--2--3--2--1--|--2--3--2--1--2--3--2--1--|
D||--------------------------|--------------------------|
A||--------------------------|--------------------------|
E||--------------------------|--------------------------|

--------------------------------------------------|--------------------------|
--------------------------------------------------|--------------------------|
--3p2-1-3p2-1-3p2-1-3p2-1-3p2-1-3p2-1-3p2-1-3p2-1-|--3p2-1-3p2-1-3p2-1-3p2-1-|
--------------------------------------------------|--------------------------|
--------------------------------------------------|--------------------------|
--------------------------------------------------|--------------------------|

---------------------------|-------------------------|------------------|
--------2------------2-----|---------2-2-------------|------------------|
--2-----2-----2-2----2-----|--2-2----2-2----2--------|------------------|
-----2-----2------2-----2--|------2------2--2--------|------------------|
---------------------------|----------------0--------|------------------|
---------------------------|-------------------------|------------------|

----------|-----------------------------|--------------------------------|
----------|-----------------------------|--------------------------------|
----------|--0h7h9-9--9--9--9--9--9--9--|--9r9-7-6--6--6--9p6-3-2--2--2--|
----------|-----------------------------|--------------------------------|
----------|-----------------------------|--------------------------------|
----------|-----------------------------|--------------------------------|

--------------------------------|------------------------------|
--------------------------------|------------------------------|
--7/9-7-6--6--6--9p6-3-2--2--2--|--3p2-1-2--2--2--3p2-1-2------|
--------------------------------|------------------------------|
--------------------------------|------------------------------|
--------------------------------|------------------------------|

------------------|----------|--------------------------------------|
------------------|----------|--------------------------------------|
------------------|----------|--0h12h14-14--14--14--14--14--14--14--|
------------------|----------|--------------------------------------|
------------------|----------|--------------------------------------|
------------------|----------|--------------------------------------|

-----------------------------------------|---------------------------------|
-----------------------------------------|---------------------------------|
--14r14-12-12--12--12--14p12-10-9--9--9--|--10p9-7-6--6--6--7p6-3-2--2--2--|
-----------------------------------------|---------------------------------|
-----------------------------------------|---------------------------------|
-----------------------------------------|---------------------------------|

--------------------------------|-----------------------|------------------|
--------------------------------|-----------------------|------------------|
--7/9-7-6--6--6--7p6-3-2--2--2--|--3p2-1-2--------------|------------------|
--------------------------------|-----------------------|------------------|
--------------------------------|-----------------------|------------------|
--------------------------------|-----------------------|------------------|

--0h10-12-12--12--12--12--12--12--12--|--12r12-10-9--9--9--10p9-6-5--5--5--|
--------------------------------------|------------------------------------|
--------------------------------------|------------------------------------|
--------------------------------------|------------------------------------|
--------------------------------------|------------------------------------|
--------------------------------------|------------------------------------|

--10/12-10-9--9--9--10p9-6-5--5--5--|--6p5-4-5--5--5--|--6p5-4-5--------------|
------------------------------------|-----------------|-----------------------|
------------------------------------|-----------------|-----------------------|
------------------------------------|-----------------|-----------------------|
------------------------------------|-----------------|-----------------------|
------------------------------------|-----------------|-----------------------|

------------------|--9-----------------------------------------------------|
------------------|-----11--10--11--10--9--10--9------9--10----------------|
------------------|-------------------------------10-----------------------|
------------------|--------------------------------------------------------|
------------------|--------------------------------------------------------|
------------------|--------------------------------------------------------|

--9-9-----------------------------------------------------------------------|
------11-11-10-10-11-11-10-10-9-9-10-10-9-9-------9-9-10p9h10---------------|
--------------------------------------------10-10---------------------------|
----------------------------------------------------------------------------|
----------------------------------------------------------------------------|
----------------------------------------------------------------------------|

--9--------------------------------------------------------------------|
----11-10-11-10-9-10-9----9-10-----10-10-10----10-10-10----10-10-10----|
-----------------------10-------9-----------9-----------9-----------9--|
-----------------------------------------------------------------------|
-----------------------------------------------------------------------|
-----------------------------------------------------------------------|

--9--------------------------------------------------------------------|
----11-10-11-10-9-10-9----9-10-----10-10-10----10-10-10----10-10-10----|
-----------------------10-------9-----------9-----------9-----------9--|
-----------------------------------------------------------------------|
-----------------------------------------------------------------------|
-----------------------------------------------------------------------|

-------------------------|------------------|-----------------------|
--10--8--7---------------|------------------|--10p8-8\7-7-----------|
------------9--7--6------|------------------|--------------9--7--6--|
-------------------------|------------------|-----------------------|
-------------------------|------------------|-----------------------|
-------------------------|------------------|-----------------------|

--------------------------|--------------------------|
--------------------------|--------------------------|
--9--7--6--9--7--6--7--6--|--9--7--6--9--7--6--7--6--|
--------------------------|--------------------------|
--------------------------|--------------------------|
--------------------------|--------------------------|

--------------------------------------------------|
--------------------------------------------------|
--9p7-6-9p7-6-9p7-6-9p7-6-9p7-6-9p7-6-9p7-6-9p7-6-|
--------------------------------------------------|
--------------------------------------------------|
--------------------------------------------------|

--------------------------------------------------|-------------------|
--------------------------------------------------|-------------------|
--9p7-6-9p7-6-9p7-6-9p7-6-9p7-6-9p7-6-9p7-6-9p7-6-|--5----------------|
--------------------------------------------------|-------------------|
--------------------------------------------------|-------------------|
--------------------------------------------------|-------------------|

-------------------|------------------|
-------------------|------------------|
-------------------|------------------|
--7----------------|------------------|
--0----------------|------------------|
-------------------|------------------|

--------------------------------------------------|
--3p2p0-------3p2p0-------3p2p0-------3p2p0-------|
--------3p2p0-------3p2p0-------3p2p0-------3p2p0-|
--------------------------------------------------|
--------------------------------------------------|
--------------------------------------------------|

--------------------------------------------------|
--3p2p0-------3p2p0-------3p2p0-------3p2p0-------|
--------3p2p0-------3p2p0-------3p2p0-------3p2p0-|
--------------------------------------------------|
--------------------------------------------------|
--------------------------------------------------|

--------------------------------------------------|
--------0h2h3-------0h2h3-------0h2h3-------0h2h3-|
--0h2h3-------0h2h3-------0h2h3-------0h2h3-------|
--------------------------------------------------|
--------------------------------------------------|
--------------------------------------------------|

--------------------------------------------------|----------------|
--------0h2h3-------0h2h3-------0h2h3-------0h2h3-|----------------|
--0h2h3-------0h2h3-------0h2h3-------0h2h3-------|--0--2----------|
--------------------------------------------------|----------------|
--------------------------------------------------|----------------|
--------------------------------------------------|----------------|

------------------|------------------------------------|
------------------|------------------------------------|
------------------|--12--9h12p9-0--9--12--9h12p9-0--9--|
------------------|------------------------------------|
------------------|------------------------------------|
------------------|------------------------------------|

------------------------------------|----------------------------------------|
------------------------------------|----------------------------------------|
--12--9h12p9-0--9--12--9h12p9-0--9--|--12-9-0-12-9-0-12-9-0-12-9-0-12-9-0-12-|
------------------------------------|----------------------------------------|
------------------------------------|----------------------------------------|
------------------------------------|----------------------------------------|

---------------------------------------|
---------------------------------------|
--9-0-12-9-0-12-9-0-12-9-0-12-9-0-12-9-|
---------------------------------------|
---------------------------------------|
---------------------------------------|

----------------------------------------------------------|
----------------------------------------------------------|
--12p9p0-12p9p0-12p9p0-12p9p0-12p9p0-12p9p0-12p9p0-12p9p0-|
----------------------------------------------------------|
----------------------------------------------------------|
----------------------------------------------------------|

----------------------------------------------------------|
----------------------------------------------------------|
--0h9h12-0h9h12-0h9h12-0h9h12-0h9h12-0h9h12-0h9h12-0h9h12-|
----------------------------------------------------------|
----------------------------------------------------------|
----------------------------------------------------------|

----------------------------------------------------------|--------------------|
----------------------------------------------------------|--------------------|
--0h9h12-0h9h12-0h9h12-0h9h12-0h9h12-0h9h12-0h9h12-0h9h12-|--12----------------|
----------------------------------------------------------|--------------------|
----------------------------------------------------------|--------------------|
----------------------------------------------------------|--------------------|

--------------------|------------------|---------------------------||
--------------------|------------------|------11p10----------------||
--0h2---------------|------------------|--12--------12--11--10--9--||
--------------------|------------------|---------------------------||
--------------------|------------------|---------------------------||
--------------------|------------------|---------------------------||


***VERZIJA 2***
Transkripcija: Igor Medarevic - mmarko@blic.net
Home         : www.2akordi.net

* Primetio sam da nije bila uradjena citava pesma,a bilo bi glupo
* da na sajtu za gitaru ne postoji citava verzija ovakve pesme.
* Ovo samo povezite sa prvom polovinom i to je to.
* Igor


E----------------------|-------------------------|
H-----11p10------------|-----11p10----10-14b-14b-|
E--12-------12-11-10-9-|--12-------12------------|
D----------------------|-------------------------|
A----------------------|-------------------------|
E----------------------|-------------------------|

E----------------------|------------------------------|
H--14\11-10------------|--------11p10----10-14b-14b-x-|
G-----------12-11-10-9-|--12-12-------12--------------|
D----------------------|------------------------------|
A----------------------|------------------------------|
E----------------------|------------------------------|

E----------------------|----------------------------------|
H--14\11-10------------|--------10h11p10----10-14b-x-14b--|
G-----------12-11-10-9-|--12-12----------12---------------|
D----------------------|----------------------------------|
A----------------------|----------------------------------|
E----------------------|----------------------------------|

E--------------------------------------------------------|
H--14\11-10----------------------------------------------|
G-----------12-11-10-9--9-9-10-9-10/12---9-9-10-9-10/12--|
D--------------------------------------------------------|
A--------------------------------------------------------|
E--------------------------------------------------------|

E-----------------------------------|
H-----------------------------------|
G--9-9-10-9-10/12---9-9-10-9-10/12--|
D-----------------------------------|
A-----------------------------------|
E-----------------------------------|

E----------------------------------------------------------------|
H----------------------------------------------------------------|
G--9-9-10-9-10/12-9-10-9-10/12-9-10-9-10/12-9-10-9-10/12-9-10-9--|
D----------------------------------------------------------------|
A----------------------------------------------------------------|
E----------------------------------------------------------------|

E-----------------------------------------------------|
H-----------------------------------------------------|
G--6-7-9--6-7-9-9--6-7-9--6-7-9--7-6h7p6--------------|
D----------------------------------------8-7-8-7-6-7--|
A-----------------------------------------------------|
E-----------------------------------------------------|

E-------------------------------|
H-------------------------------|
G-------------------------------|
D--7-6h7p6---6h7p6--------------|
A----------8-------8-7-8-7-5-7--|
E-------------------------------|

E-------------------------------------|
H-------------------------------------|
G-------------------------------------|
D------6-7-6h7p6---6h7p6--------------|
A--7-8-----------8-------8-7-8-7-5-7--|
E-------------------------------------|

E-----------------------------------------------|
H-----------------------------------------------|
G-----------------------------------------------|
D-------6-7-7--6---6-7-7--6---6-7-7--6---6-7-7--|
A--7-7h8--------7h8--------7h8--------7h8-------|
E-----------------------------------------------|

E-------------------------------------|
H-------------------------------------|
G-------------------------------------|
D--7-8p7p6-7-8p7p6-7-8p7p6-7-8p7p6-7--|
A-------------------------------------|
E-------------------------------------|

E-----------------------------------------------|
H-----------------------------------------------|
G-----------------------------------------------|
D--8p7p6-8p7p6-8p7p6-8p7p6-8p7p6-8p7p6-8p7p6-7--|
A-----------------------------------------------|
E-----------------------------------------------|

E--5-6-9-10-9-6-9-6-5-6-5-4--|
H--5-6-9-10-9-6-9-6-5-6-5-4--|
G----------------------------|
D----------------------------|
A----------------------------|
E----------------------------|

E--5-6-9-10-9-6-9-6-5-6-5-4--|
H--5-6-9-10-9-6-9-6-5-6-5-4--|
G----------------------------|
D----------------------------|
A----------------------------|
E----------------------------|


E--5-6-9-10-9-6-9-6-5-6-5-4--|
H--5-6-9-10-9-6-9-6-5-6-5-4--|
G----------------------------|
D----------------------------|
A----------------------------|
E----------------------------|

E--5-6-9-10-9-6-9-6-5-6-5-4--|
H--5-6-9-10-9-6-9-6-5-6-5-4--|
G----------------------------|
D----------------------------|
A----------------------------|
E----------------------------|

E--5p4p3-5-5p4p3-5-5p4p3-5-5p4p3-5--|
H-----------------------------------|
G-----------------------------------|
D-----------------------------------|
A-----------------------------------|
E-----------------------------------|

E--5p4p3-5p4p3-5p4p3-5p4p3-5p4p3-5p4p3--|
H---------------------------------------|
G---------------------------------------|
D---------------------------------------|
A---------------------------------------|
E---------------------------------------|

E--5p4p3-5p4p3-5p4p3-5p4p3-5p4p3-5-/--|
H-------------------------------------|
G-------------------------------------|
D-------------------------------------|
A-------------------------------------|
E-------------------------------------|

E--9---------------------------------------|
H-----11--10--11--10--9--10--9------9--10--|
G-------------------------------10---------|
D------------------------------------------|
A------------------------------------------|
E------------------------------------------|

E--9-9----------------------------------------------------------|
H------11-11-10-10-11-11-10-10-9-9-10-10-9-9-------9-9-10p9h10--|
G--------------------------------------------10-10--------------|
D---------------------------------------------------------------|
A---------------------------------------------------------------|
E---------------------------------------------------------------|

E--9--------------------------------
H----11-10-11-10-9-10-9----9-10-----
G-----------------------10-------9--
D-----------------------------------
A-----------------------------------
E-----------------------------------

-------------------------------------|
-10-10-10----10-10-10----10-10-10----|
----------9-----------9-----------9--|
-------------------------------------|
-------------------------------------|
-------------------------------------|

E--9--------------------------------
H----11-10-11-10-9-10-9----9-10-----
G-----------------------10-------9--
D-----------------------------------
A-----------------------------------
E-----------------------------------

-----------------------------------------
--10-10-10----10-10-10----10--10--10-----
-----------9-----------9--------------9--
-----------------------------------------
-----------------------------------------
-----------------------------------------

E-----------------------------------------------------|
H--10--10--10-----10---10---10------------------------|
G--------------9-----------------9--------------------|
D--------------------------------------------------2--|
A-----------------------------------0---0---0------0--|
E-----------------------------------------------0-----|