Tbf, The Beat Fleet - Papilova

Album        : Maxon universal (2004.)
Transkripcija: ivan3,  a38@net.hr, 29.06.06. 



Glavna tema:
    G7           Bb          Bb6       C6
|---7~~~~~~~~~~------|    |-(3)(3)-----5--5-----19\
|--------------------|    |--3--3------5--5-------|
|*--------------(7)-*|(3x)|--3--3------5--5-------|(1x)
|*---------------8--*|    |--3--3------5--5-------|
|----------------8---|    |-----------------------|
|--------------------|    |-----------------------|

Refren riff: 
 G7                                                            Bb6       C6
|-------------------|--------------------|--------------------|--------------------|
|---5h6p5---------.-|----5h6p5-------3\/-|---5p6h5----------.-|--------------------|
|(0)------7p5/2-7/9-|-7~~------7/5~~-3\/-|---------7p5/2--7/9-|-7~~-7b9r7~---------|
|-------------------|--------------------|--------------------|-----------pb8r7b8r7|
|-------------------|--------------------|--------------------|--------------------|
|-------------------|---------------(w.bar)-------------------|--------------------|


/gl. tema/
Cili tjedan ja radin ka konj  (cili tjedan radi ka konj)
I po znoju stalno iman vonj   (ponavlja...)
Ma neman mira, prca me sef     ....
A ja bi tija imat pun sef      ....
Ostvarit snove, imat brdo love, ubost dvanest parova i zivit poput carova
Imat skuter, auto i kompjuter, pun frizider, da zivot bude super
Imat eura ka petit beura i more planktona i Pamela silikona
Al cu se ubit, jer kako moze biti; kako gubit mogu favoriti


Refren (2x):
Papilova (ulozi da se mnozi)
Papilova (placu mi oglodji)
Papilova (ulozi da se mnozi)
Papilova, papilova

/gl.tema/
Po cili dan gledan u teletekst
Ne zanima me ni hrana ni seks
Ma ljut ka hren, gutan persen
Pa moran ubost dobar ko`fic`jent
I samo gledan di cu: jedan, nula, dva, iks - to je moj fiks
Al ne znan kako ne mogu ubost, moran se smirit jer ucini`cu grupost

Refren

/gl. tema/
Papi-lova-lova
Papi-lova-lova
Papi-lova-lova

G6*        G         F             G6       G         F
Etiopijski sumo, cileanski hokej - ma moran ubost, pa nisan okej
Viski kriket, splitski bob a prokleti tiket ce me odvest u grob
Al uvaticu sricu, napunicu vricu; zena otisla je materi i odvela dicu
Totalni fijasko, ovaj sport je skup, al jos cemo se vidit - nisan tolko glup

[N.C.]
Papilova, ma papilova
papi papi lova
Papilova, papilova


Refren

Refren

Outro:
|----------------7~~-|
|----------------8~~-|
|-pb3r2b3r2--0-------|
|--------------------|
|--------------------|
|--------------------|

-------------------------
G6*  355430