Valentino - Bez Tebe

Transkripcija: ???
Poslao       : MD
Album        : Valentino 2 - 1985.


Dm         C               Dm
Bez tebe, moje su noci besane.
Dm                 C     Gm
Bez tebe, ove su ulice uske.
           A               Dm
Volim te, ooo, djubre volim te.

Bez tebe, ja nisam isti vise ne.
Bez tebe, moje su pjesme bezvrijedne.
volim te, ooo, djubre volim te.

Dm
Tvoje su oci sasvim obicne,
                        Gm
Tvoji su koraci bez proslosti,
            Dm        A        Dm
Usne kao djecije - lazljive, crvene.

Dok hodas ljudi se okrecu,
Svaleri na te ne racunaju,
Ruke sitne, ohole, nikad ne vole.

Bez tebe...

Mirisi, haljine i pokloni,
Leze uz mene, uz pocasti.
Jedan krevet navik'o, navik'o na dvoje.

Grad je raskosan u proljece,
Zene su prelijepe dok prolaze,
Ali medju hiljadu, ja te ne vidim.

Bez tebe...


***VERZIJA 2***
Transkripcija: Mike Arsic (arsic_mike@hotmail.com)

Solo:
e--------------------------------------------------------------------
B--------------------------------------------------------------------
G--------9---11---12---11---9------------------------9---------------
D-----------------------------------12---10------12-------12---10---9
A--------------------------------------------------------------------
E--------------------------------------------------------------------

e--------------------------------------------------------------------
B--------------------------------------------------------------------
G--------9---11---12---11---9----------------------------------------
D-----------------------------------12---10------9-------------------
A------------------------------------------------------12---10---9---
E------------------------------------------------------------------12

e--------------------------------------------------------------------
B--------------------------------------13---12-----------10---13---12
G--------9---11---12---11---9------------------11---12---------------
D--------------------------------------------------------------------
A--------------------------------------------------------------------
E--------------------------------------------------------------------

e--------------------------------------------------------------------
B--------------------------------------------------------------------
G--------9---11---12---11---9----------------------------------------
D-------------------------------12---10------9-----------------------
A--------------------------------------------------12---10---9-------
E-----------------------------------------------------------------12-

e--------------------------------------------------------------------
B--------------------------------------------------------------------
G--------9---11---12---11---9--------------------9-------------------
D-------------------------------12---10------12-------12---10---9----
A--------------------------------------------------------------------
E--------------------------------------------------------------------

e--------------------------------------------------------------------
B--------------------------------------------------------------------
G--------9---11---12---11---9----------------------------------------
D-------------------------------12---10------9-----------------------
A--------------------------------------------------12---10---9-------
E-----------------------------------------------------------------12-

e--------------------------------------------------------------------
B----------------------------------13---12---------------10---13---12
G--------9---11---12---11---9--------------11---12-------------------
D--------------------------------------------------------------------
A--------------------------------------------------------------------
E--------------------------------------------------------------------

e--------------------------------------------------------------------
B--------------------------------------------------------------------
G--------9---11---12---11---9----------------------------------------
D-----------------------------------12---10------9h10-----9h10---9h10
A--------------------------------------------------------------------
E--------------------------------------------------------------------