Valentino - Pile Moje

Transkripcija: sasayu1983@gmail.com


I
F#m               Hm
Boze pomozi svome sinu jedinom,
C#                   F#m
nocas sam bolestan i lud sam za njom.
F#m               Hm         C#    F#m
Boze podari malo pameti dar, o pomagaj.

II
Sunce u tvojoj ruci mali dukat zut,
vjetar kroz tvoju kosu putuje na jug,
nebo u zlatnom oku budi sjecanje, neke nase godine.


Bridge:
E           A   E       A
Ko princeza je, bila uz mene,
E        A  C#(7)
usne rumene,  krale su mi dah...

Ref:
      Hm                  F#m
Pile moje zovi me kad ti sreca dodije,
     C#                   F#m
bar malo malo vise cu te voljeti,
     Hm                   F#m
Pile moje zovi me kad ti sreca dodije,
 C#             F#m
uz mene je najbolje.

III
Nemam ni dvorac, bijele konje plavu krv,
ulica je moja zemlja - ulica je drug,
samo pokazi Mjesec ukrascu ga znaj,
neka bude samo tvoj...

Bridge:

Ref:

Solo:
e|--9-9-9-7-7-9-10-|--7-7-7-----------|-----------------------------|
h|-----------------|--------10-10-9-7-|-9-9-9-9-9-9-10-9--7-9-10----|
g|-----------------|------------------|-----------------------------|
D|-----------------|------------------|-----------------------------|
A|-----------------|------------------|-----------------------------|
E|-----------------|------------------|-----------------------------|

e|--9-9-9-7-7-9-10-|--7-7-7-----------|-----------------------------||
h|-----------------|--------10-10-9-7-|-9-9-9----10-9-7-------------||
g|-----------------|------------------|-------10--------------------||
D|-----------------|------------------|-----------------------------||
A|-----------------|------------------|-----------------------------||
E|-----------------|------------------|-----------------------------||


***VERZIJA 2***
Transkripcija: polly


F#m                 Hm
Boze, pomozi svome sinu jedinom
C#7                    F#m
nocas sam bolestan i lud sam za njom
F#m                Hm
boze, podari malo pameti daj,
C#7      F#m
o pomagaj

sunce u tvojoj ruci mali dukat zut
vjetar kroz tvoju kosu putuje na jug
nebo u zlatnom oku budi sjecanje,
neke nase godine

E           A   E          A
ko princeza je, bila uz mene,
E         A    C#7
usne rumene, krale su mi dah

     Hm                  F#m
Pile moje zovi me kad ti sreca dodije
    C#7                     F#m
bar malo, malo vise cu te voljeti
     Hm                  F#m
pile moje zovi me kad ti sreca dodije,
C#7              F#m
uz mene je najbolje

nemam ni dvorac,bijele konje, plavu krv
ulica je moja zemlja,ulica je drug, samo
pokazi mjesec ukrast cu ga znaj,
neka bude samo tvoj