Valentino - Samo Sklopi Okice

Transkripcija: NesoT


Dm                 C
Noci su ovdje tako ledene
Dm            C
oci crvene od kosave
Dm                  C
glava ko kocka leda putuje
B             C          Dm
ti znas dobro znas volim te.

Dm                    C
Hiljade milja od tebe sam
Dm                C
djele nas granice ratovi
Dm                    C
a ja ne mogu da zaboravim
B      C            Dm
uzalud uzalud volim te.

Ref:2x

Dm                  F       C           Dm
Samo sklopi okice i zovi mi ime zovi mi ime
C              F       C            F
jedan ce ludak letjeti kroz planine kroz planine.
Dm                  F       C           Dm
Samo sklopi okice i zovi mi ime zovi mi ime
C              F       C            B  C
jedan ce ludak letjeti kroz planine do tebe.


I bila jednom jedna jesen
lisce je saptalo sa stopama
magla me cuvala od pogleda
bojim se sjecanja.

Noci su ovdje tako preduge
godine lijene ko stoljece
ja sklapam oci gledam jasnije
zvijezde plove tebi ljubavi.

Ref:4x


***VERZIJA 2***
Transkripcija: Partibrejkers
Stim         : Eb Ab Db Gb Hb Eb


Uvod :
                   NH.                            NH.
Eb--------------0---------------------------0---------
Hb--------------0-----*7--------------------0-----*7--
Gb--------------------*7--------------------------*7--
Db-------------------(*7)------------------------(*7)-
Ab-0h2p0----2----------------0h2p0----2---------------
Eb-------3--0----------------------3--0---------------

Prelaz 1 :
                         NH.
Eb---------------0---------------
Hb---------------0-------*7------
Gb-----------------------*7------
Db----------------------(*7)-----
Ab-0h2p0----2--------------------
Eb-------3--0--------------------

Prelaz 2 :
                              NH.
Eb------------------0-------------
Hb------------------0---------*7--
Gb----------------------------*7--
Db--0h2p0--------------------(*7)-
Ab--------2p0----2----------------
Eb------------3--0----------------


Strofa:
Em                 D        (prelaz 1)
Noci su ovdje tako ledene
Em            D             (prelaz
oci crvene od kosave
Em                D
glava ko kocka leda putuje

Eb--------0----------------0----------
Hb------1------1---------3------3-----
Gb----0----------------2--------------
Db-------------------0----------------
Ab--3---------------------------------
Eb------------------------------------

C             Dsus2       Em  Rif
ti znas dobro znas volim te


Rif
Eb--------------------------------------------
Hb--------------------------------------------
Gb--------------------------------------------
Db-(9)-9-9-11-12----9-7-----7----14-12-11----- 4x
Ab-(7)-7-7-9--10----7-5-----5----12-10-9------
Eb--------------------------------------------

(isti akordi u drugoj strofi, samo su prelazi malo drugaciji,
mrsko mi je sad i to da skinem,
sviraj prelaze kao u prvoj strofi ili improviziraj)

rif

Refren:

(Bass)
(E F#) G    (Em) G            D           G
 Samo sklopi okice i zovi mi ime zovi mi ime
           D          G          D         G
 jedan ce ludak letjeti kroz planine kroz planine