Van Gogh - Basna

Transkripcija: Vai
Album        : Tragovi proslosti, 1995


Intro koji inace svira bass, ali moze se odsvirati i na gitari:
(Prstima okidajte A zicu na 5-om pragu kako bi dobili onaj 'slap' efekat)

E||--------------|------------|-------||
B||--------------|------------|-------||
G||--------------|------------|-------||
D||--------------|------------|-------||
A||--5--5---5--5-|--5-5-5--5--|--5--5-||
E||--------------|------------|-------||

Gitara Riff 1 (shiba kroz skoro citavu pesmu):

E||--------------------|-----------------|
B||--------------------|-----------------|
G||------------10-x-10-|-10h-12-12-x-12--|
D||--10h-12-x--10-x-10-|-10h-12-12-x-12--|
A||--10h-12-x--8--x-8--|-8-h-10-10-x-10--|
E||--8-h-10-x----------|-----------------|

E||--------------------|--8-8-x-8--8--||
B||--------------------|--8-8-x-8--8--||
G||------------10-x-10-|--------------||
D||--10h-12-x--10-x-10-|--------------||
A||--10h-12-x--8--x-8--|--------------||
E||--8-h-10-x----------|--------------||

STROFA 1:

D5                                            D5
Setao se jednog dana jednom crvenkastom sumom lovac
D5                             D5     F5*
video je zeca i sapnuo mu 'evo novac, bajo'
D5                                      D5
od tog dana intenzivno gotivi se vuk sa zmijom
D5                                D5     F5*
a liji nije jasno ona samo  misli glasno


REF (svira se riff 1) :

Vise se ne zna, ko je ko, ne zna se
i niko ne zna ko je lud, ne zna se
ovde se ne zna ko je ko, ne zna se
i niko ne zna ko je lud, ne zna se


STROFA 2:

Krenula je ljuta sema da caruje sumom zlom
A pocela je hajka poceo je pravi lov
Pricu shvatili su ko sa kime sad se zna
Ko ce koga tu da pita izlaz neko da im da

REF.


PRELAZ 1 (gitara i truba):

E||-----------------|--------------------||
B||-----------------|--------------------||
G||-----------------|--------------------||
D||-----------------|--------------------||
A||--8---------5----|--8h-10--10--8--10--||
E||-------8---------|--------------------||

E||-----------------|--------------------||
B||-----------------|--------------------||
G||-----------------|--------------------||       2 x
D||-----------------|--------------------||
A||--8---------5----|--8h-10--10--8--10--||
E||-------8---------|--------------------||


STROFA 3:

Nestao je dana jednog cudni junak taj
Dal je lovac lovac ili lovac samo mozda je rovac
I nasa basna nije bajka ona nema srecan kraj
Al suma ova nema mapu zato lovac seta kapu

REF.

PRELAZ 2:

E||--------------|--------------|-------------------||
B||--------------|--------------|-------------------||
G||--------------|--------------|-------------------||
D||--------------|--------------|-------------------||
A||--8h-5--x--x--|--------x--x--|---------------5---||
E||--------------|--8h-10-------|--5--8--5---8------||

E||--------------|--------------|-------------------||
B||--------------|--------------|-------------------||
G||--------------|--------------|-----10-----9------||
D||--------------|--------------|-----9------8------||
A||--8h-5--x--x--|--------x--x--|-----8------7------||
E||--------------|--8h-10-------|-------------------||

E||--------------|--------------|-------------------||
B||--------------|--------------|-------------------||
G||--------------|--------------|-------------------||
D||--------------|--------------|-------------------||
A||--8h-5--x--x--|--------x--x--|---------------5---||
E||--------------|--8h-10-------|--5--8--5---8------||

E||--------------|--------------||
B||--11h--10-9-8-|--7-7-x-x--6~-||
G||--9----8--7-6-|--5-5------4--||
D||--------------|--------------||
A||--------------|---------|----||
E||--------------|--------------||

Opet intro bass
Refren
pauza
Refren
prelaz 1

KRAJ!

D5 = okida se 2 puta i pauza do sledeceg D5
F5*(na 8 pragu se svira)= okida se vise puta (poslusajte pesmu)