Van Gogh - Delfin

Transkripcija: Milan Pavlovic (paparaco@EUnet.yu)
Home         : http://www.yutabs.f2s.com


  Tema:
  D5               D5               C5               C5
E|----------------|----------------|----------------|----------------|
H|----------------|----------------|----------------|----------------|
G|7-------7-----7-|--7-7---7-------|5-------5-----5-|--5-5---5-------|
D|7-------7-----7-|--7-7---7-------|5-------5-----5-|--5-5---5-------|
A|5-------5-----5-|--5-5---5---0---|3-------3-----3-|--3-3---3---0---|
E|----------------|----------------|----------------|----------------|
  G5add7           G5               G5               G5add7
E|----------------|----------------|----------------|----------------|
H|----------------|----------------|----------------|----------------|
G|----------------|----------------|----------------|----------------|
D|3-------3-----5-|--5-----3---5---|5-------5-----3-|--3-3---3---5---|
A|5-------5-----5-|--5-5---5---5---|5-------5-----5-|--5-5---5---5---|
E|3-------3-----3-|--3-3---3---3---|3-------3-----3-|--3-3---3---3---|

  Solo:
  D5               D5               C5               C5
E|----------------|----------------|----------------|----------------|
H|----------------|------8---6~----|----------------|------8---6~----|
G|----------------|----------------|----------------|----------------|
D|----9--10-------|7h9-------------|----9--10-------|7h9-------------|
A|----------------|----------------|----------------|----------------|
E|----------------|----------------|----------------|----------------|
  G5add7           G5               G5               G5add7
E|----------------|----------------|----------------|----------------|
H|----------------|------8---6~----|----------------|----------------|
G|----------------|----------------|----------------|----------------|
D|----9--10-------|7h9-------------|2---3-------2---|----------------|
A|----------------|----------------|----------------|----3-/-5-------|
E|----------------|----------------|----------------|----------------|

  Strofa:
D5             C5
Mozda te sutra imati ne├Žu
    G5add7   G5       G5add7    D5   C5 G5add7 G5 G5add7  
Ali danas te imam, za ceo zivot svoj
Vise se nikad, necemo stici
Nismo jedno u kuci ljubavi

  Prelaz:
Hm            A
Molim za toplinu
G               A
Secanja vode sa dubokog dna
Hm          A
Od stida ti cuvaj je
G                       A
Pod kozom znas da nemam nikoga

  Refren:
  Dm             Dsus2 Dm  Dm       A           Asus4    A
E|1-------1-------|0---1---1-------|0-----------0---|----0-----------|
H|3-------3-------|3---3---3-------|2-----------3---|----2-----------|
G|2-------2-------|2---2---2-------|2-----------2---|----2-----------|
D|0-------0-------|0---0---0-------|2-----------2---|----2-----------|
A|----------------|----------------|0-----------0---|----0-----------|
E|----------------|----------------|----------------|----------------|
Osim mene                          aha
  F           F        F            G           G        G
E|1-----------1---|----1-----------|3-----------3---|----3-----------|
H|1-----------1---|----1-----------|3-----------3---|----3-----------|
G|2-----------2---|----2-----------|4-----------4---|----4-----------|
D|3-----------3---|----3-----------|5-----------5---|----5-----------|
A|3-----------3---|----3-----------|5-----------5---|----5-----------|
E|1-----------1---|----1-----------|3-----------3---|----3-----------|
I milion           tona                    teskog    Sunca
  Dm             Dsus2 Dm  Dm       A           Asus4    A
E|1-------1-------|0---1---1-------|0-----------0---|----0-----------|
H|3-------3-------|3---3---3-------|2-----------3---|----2-----------|
G|2-------2-------|2---2---2-------|2-----------2---|----2-----------|
D|0-------0-------|0---0---0-------|2-----------2---|----2-----------|
A|----------------|----------------|0-----------0---|----0-----------|
E|----------------|----------------|----------------|----------------|
Osim tebe                      i    mene
  F           F        F            C           C        C
E|1-----------1---|----1-----------|0-----------0---|----0-----------|
H|1-----------1---|----1-----------|1-----------1---|----1-----------|
G|2-----------2---|----2-----------|0-----------0---|----0-----------|
D|3-----------3---|----3-----------|2-----------2---|----2-----------|
A|3-----------3---|----3-----------|3-----------3---|----3-----------|
E|1-----------1---|----1-----------|----------------|----------------|
        Ova zemlja nema                 nikoga

Bojis se da udahnes vetar 
Svaki uzlet je pad
Plasis se kako se nikad necemo stici
Nismo jedno u ljubavi 

Cuvaj toplinu
Secanja vode sa dubokog dna
Od stida ti cuvaj je pod kozom
Znas da nemam nikoga

  Korisceni akordi:
D5    -X577XX
C5    -X355XX
G5add7-353XXX
G5    -355XXX
Hm    -X24432
A     -X02220
G     -355433
Dm    -XX0231
Dsus2 -XX0230
Asus4 -X02230
F     -133211
C     -X32010

***VERZIJA 2***
Transkripcija: Dr.Kac maric04@yahoo.com
Tuning       : E A D G B E 


  |       |       |       |          |       |       |       |         
|----------------------------------|----------------------------------|
|----------------------------------|----------------------------------|
|---------7---------------7--------|-----7-------7-------7---7--------|
|---------0---------------0--------|-----0-------0-------0---0--------|
|---------5---------------5--------|-----5-------5-------5---5--------|
|----------------------------------|----------------------------------|

  |       |       |       |          |       |       |       |         
|----------------------------------|----------------------------------|
|----------------------------------|----------------------------------|
|---------5---------------5--------|-----5-------5-------5---5--------|
|---------0---------------0--------|-----0-------0-------0---0--------|
|-0-------3---------------3--------|-----3-------3-------3---3--------|
|----------------------------------|----------------------------------|

  |       |       |       |          |       |       |       |         
|----------------------------------|----------------------------------|
|----------------------------------|----------------------------------|
|---------0---------------0--------|-----0-------0-------0---0--------|
|---------3---------------3--------|-----3-------3-------3---3--------|
|-0-------5---------------5--------|-----5-------5-------5---5--------|
|----------------------------------|----------------------------------|

  |       |       |       |          |       |       |       |         
|----------------------------------|----------------------------------|
|----------------------------------|----------------------------------|
|-0--------------------------------|----------------------------------|
|-3-------5-----------5-------2----|---3---3---3---3---2--------------|
|-5-------5-----------5-------3----|---3---3---3---3---3--------------|
|----------------------------------|----------------------------------|

D5             C5
Mozda te sutra imati necu
    G5add7   G5       G5add7    D5   C5 G5add7 G5 G5add7 
Ali danas te imam, za ceo zivot svoj
Vise se nikad, necemo stici
Nismo jedno u kuci ljubavi

  Prelaz:
Hm            A
Molim za toplinu
G               A
Secanja vode sa dubokog dna
Hm          A
Od stida ti cuvaj je
G                       A
Pod kozom znas da nemam nikoga

  Refren:
  Dm             Dsus2 Dm  Dm       A           Asus4    A
E|1-------1-------|0---1---1-------|0-----------0---|----0-----------|
H|3-------3-------|3---3---3-------|2-----------3---|----2-----------|
G|2-------2-------|2---2---2-------|2-----------2---|----2-----------|
D|0-------0-------|0---0---0-------|2-----------2---|----2-----------|
A|----------------|----------------|0-----------0---|----0-----------|
E|----------------|----------------|----------------|----------------|
Osim mene                          aha
  F           F        F            G           G        G
E|1-----------1---|----1-----------|3-----------3---|----3-----------|
H|1-----------1---|----1-----------|3-----------3---|----3-----------|
G|2-----------2---|----2-----------|4-----------4---|----4-----------|
D|3-----------3---|----3-----------|5-----------5---|----5-----------|
A|3-----------3---|----3-----------|5-----------5---|----5-----------|
E|1-----------1---|----1-----------|3-----------3---|----3-----------|
I milion           tona                    teskog    Sunca
  Dm             Dsus2 Dm  Dm       A           Asus4    A
E|1-------1-------|0---1---1-------|0-----------0---|----0-----------|
H|3-------3-------|3---3---3-------|2-----------3---|----2-----------|
G|2-------2-------|2---2---2-------|2-----------2---|----2-----------|
D|0-------0-------|0---0---0-------|2-----------2---|----2-----------|
A|----------------|----------------|0-----------0---|----0-----------|
E|----------------|----------------|----------------|----------------|
Osim tebe                      i    mene
  F           F        F            C           C        C
E|1-----------1---|----1-----------|0-----------0---|----0-----------|
H|1-----------1---|----1-----------|1-----------1---|----1-----------|
G|2-----------2---|----2-----------|0-----------0---|----0-----------|
D|3-----------3---|----3-----------|2-----------2---|----2-----------|
A|3-----------3---|----3-----------|3-----------3---|----3-----------|
E|1-----------1---|----1-----------|----------------|----------------|
        Ova zemlja nema                 nikoga

Bojis se da udahnes vetar
Svaki uzlet je pad
Plasis se kako se nikad necemo stici
Nismo jedno u ljubavi

Cuvaj toplinu
Secanja vode sa dubokog dna
Od stida ti cuvaj je pod kozom
Znas da nemam nikoga


***VERZIJA 3***
Transkripcija: Ivan Vasic (ivasic@cent.co.yu)
Poslao       : Marko (lade@bendroz.ca)
Home         : ????



D              C
Mozda te sutra imati necu
    G             C            D    CGC
ali danas te imam za ceo zivot svoj
D       C            G
vise se nikad necemo stici
      C                D  CGC
nismo jedno u kuci ljubavi

Hm         A
Molim za toplinu
G               A
secanja vode sa dubokog dna
    Hm      A
od stida ti cuvaj je
G                      A
pod kozom znas da nema nikoga
        
     Dm    A  Asus4
osim mene a-ha
    F         C
i milion tona teskog sunca
     Dm     A   Asus4
osim tebe i mene
F               C
ova zemlja nema nikoga

Bojis se da udahnes vetar svaki uzlet je pad
plasis se, tako se nikad necemo stici
nismo jedno u ljubavi

Cuvaj toplinu
secanja vode sa dubokog dna
od stida ti cuvaj je
pod kozom znas da nema nikoga