Van Gogh - Kiselina

Transkripcija: pipss@mail.ru
Home         : http://2akordi.net/

____________
LIVE VERZIJA:
Intro: (fura kroz veci dio pjesme)
     G5                                                  
E|--------------------------|--------------------------|
B|--------------------------|--------------------------|
G|--------------------------|--------------------------|
D|--------------------------|--------------------------|
A|--------------------------|--------------------1--0--|
E|--3--3----1-1-3--3----1-1-|--3--3----1-1-3--3--------|

                                      A#5        
------------------------|-----------------------|
------------------------|-----------------------|
------------------------|-----------------------|
------------------------|-----------------------|
------------------------|-------------3----1----|
--3--3----1--3--3----1--|--3--3--3--------------|

  G5                                                  
--------------------------|--------------------------|
--------------------------|--------------------------|
--------------------------|--------------------------|
--------------------------|--------------------------|
--------------------------|--------------------1--0--|
--3--3----1-1-3--3----1-1-|--3--3----1-1-3--3--------|

                                    C5     A#5   
------------------------|-----------------------|
------------------------|-----------------------|
------------------------|-----------5------3----|
------------------------|-----------5------3----|
------------------------|-----------3------1----|
--3--3----1--3--3----1--|--3--3--3--------------|

-------------------------|-------------------------|
-------------------------|-------------------------|
-------------------------|-------------------------|
-------------------------|-------------------------|
--1--1----0--1--1----0-0-|--1--1----0--1--1--3--1--|
--3--3----3--3--3----3-3-|--3--3----3--3--3--3--3--|

                                      A#5         
------------------------|-----------------------|
------------------------|-----------------------|
------------------------|-----------------------|
------------------------|-----------------------|
------------------------|-------------3----1----|
--3--3----1--3--3----1--|--3--3--3--------------|


VERSE:
G5
Nisam kao oni
                     A#5
Kao oni sto zabavljaju 
G5           
Nisam kao oni
                  A#5
Kao oni sto otimaju

G5
Mislim da znam kako mami te glad
D#5
Padas i dizes se danima
F5                   C5
Dok tuce srce tvoje sate kuca
          G5
Nemas nikoga

Cuje se huk iz tela sve jaci 
Pazi se gde si pazi ko si, s kim si 
Za novac vodim samo jednom u bol 
Pevam bluz za nas

BRIDGE:|A#5   |A5  G#5|G5    |

za novac.....
i sve za novac

CHORUS:

F5 C5            G5
Izmenicu ti zivot 
F5 C5       G5
Izmesacu ti boje kiselinom
F5 C5           G5 
Izmenicu ti zivot 
F5 C5             G5
I samo da zavaram glad

SOLO:

Nisam kao oni
Kao oni sto zabavljaju 
Nisam kao oni
Kao oni sto otimaju

Puteve sve ljudi su zli
Samo za sebe stvorili 
Mislim da znam kako mami te mami neki bolji svet 
Za novac, i sve za novac

REF:
OUTRO:

_KRAJ_

SOLO:
   G5
E|------------------------|------------------------|
B|------------------------|------------------------|
G|------------------------|------------------------|
D|-------5--5--3--3--5----|-------5--5--3--3--5----|
A|------------------------|------------------------|
E|--3---------------------|--3---------------------|
                                                          
------------------------|---------------------------------|
------------------------|------------------------8--6-----|
------------------------|--5--6--7--5--6--7--5-7-------5--|
-------5--5--3--3--5----|---------------------------------|
------------------------|---------------------------------|
--3---------------------|---------------------------------|

OUTRO:
   G5        A#5  G5       C5
E|------------------------------|
B|------------------------------|
G|-----------3-------------5----|
D|-----------3-------------5----|
A|-----------1-------------3----|
E|--3--3--3-------3--3--3-------|

  G5       C#5  C5   A#5  C5                                 
-------------------------------|
-------------------------------|
-----------6----5----3----5----|
-----------6----5----3----5----|
-----------4----3----1----3----|
--3--3--3----------------------|

***VERZIJA 2***
Transkripcija: Milan Pavlovic (paparaco@EUnet.yu)
Home         : http://www.yutabs.f2s.com


  Tema, strofa:
  G5               G5
E|----------------|----------------|
H|----------------|----------------|
G|----------------|----------------|
D|----------------|----------------|
A|5---5-------3---|5---5-------3---|
E|3---3-------1---|3---3-------1---|

  Strofa:
Nisam kao oni, kao oni sto zabavljaju
Nisam kao oni, kao oni sto otimaju

  Prelaz:
G5
Mislim da znam kako mami te glad,
Dis5        
Padas i dizes se danima
C5                                     {tema}
Dok tudje srce tvoje sate kuca nemas nikoga

G5
Cuje se huk iz tela sve jaci 
Dis5
Pazi se gde si pazi ko si s kim si 
F5*                 C5       F5*
Za novac vodim samo jednom gde Bog 
      {tema}     B5 A5 Gis5 {tema}
Peva bluz za nas

  Refren:
            F5 C5 G5   
Izmenicu ti zivot 
Izmesacu ti boje kiselinom 
Izmenicu ti zivot i samo da zavaram glad
F5  C5      G5
Izmenicu ti zivot 
Izmesacu ti boje kiselinom 
Izmenicu ti zivot da zavaram glad, glad, glad

  Prelaz 2:
  G5               G5               G5               G5
E|----------------|----------------|----------------|----------------|
H|----------------|----------------|------------11--|(11)------------|
G|12--12------10--|12--12------10--|12--10----------|----------------|
D|----------------|----------------|----------------|----------------|
A|----------------|----------------|----------------|----------------|
E|----------------|----------------|----------------|----------------|
  Dis5             Dis5             C5               C5
E|----------------|----------------|----------------|----------------|
H|----------------|----------------|------------13--|----11----------|
G|12--12------10--|12--12------10--|12--10----------|----------------|
D|----------------|----------------|----------------|----------------|
A|----------------|----------------|----------------|----------------|
E|----------------|----------------|----------------|----------------|

G5
Puteve sve ljudi su zli
Dis5  
Za sebe samo stvorili 
C5                                    {tema}
Mislim da znas kako mami te mami neki bolji svet 
         B5 C5 D5 {tema}  B5 A5 Gis5 {tema}
Za novac         za novac

  Kraj: F5 C5 G5

  Korisceni akordi:
G5  -35XXXX
Dis5-X68XXX
C5  -X35XXX
F5  -13XXXX
F5* -X 8 10 X X X
B5  -X13XXX
A5  -X02XXX
Gis5-46XXXX
D5  -X57XXX