Van Gogh - Klatno

Transkripcija: Goran Stefanovic (profa@tesla.rcub.bg.ac.yu)
Poslao       : Marko (lade@bendroz.ca)
Home         : http://members.xoom.com/yutablature



B5


B5              A5            G5               F#5
Mi sve smo probali i sve prodali za samo jedan dan

  B5           A5            D5        F#5
I sva nasa nadanja su izbledela od cekanja


   |       |       |       |          |       |       |       |
E----------------------------------|----------------------------------|
B----------------------------------|----------------------------------|
G----------------------------------|----------------------------------|
D----------------------------------|----------------------------------| 2X
A--------------------------2-------|--------------------------2-------|
E--2-2-0-2-5---0-2---2-0-2-----5---|--2-2-0-2-5---0-2---2-0-2-----0---|



       B5                         A5
Koliko puta sam zamisljao kako me oblak nekud odneo

        G5              F#5
Negde daleko, u zaborav,  vise mi nista ne znacis

B5             A5         D5   F#5
   While my guitar gently weeeeeeps


D5
Klati se klatno, zlato je zlato,
(Sve, sve ove)

A5
Bleda je senka lepa i slepa
(godine ti si)

E5
Spava li bajna, da li je tajna
(tu i)

G5             A5
Kako se klatno klatilo zlatno
(cekas da      nadem te)


D5
Klati se klatno, zlato je zlato,
(Znas da ljubav)

A5
Bleda je senka lepa i slepa
(slepa je kazi)

E5
Spava li bajna, da li je tajna
(mi)

G5             A5
Kako se klatno klatilo zlatno
(kako da       cuvam te)


solo
    |   |   |     |       |   |   |   |     |   |   |    |      |   |   |   |
E----------------------|------------------|------------------|----------------|
B-------------------10-|-10--s5---------5-|-7-----------10---|-10---9---------|
G--11---------11-12----|--------------7---|------------------|----------------|
D----------------------|------------------|------------------|----------------|
A----------------------|------------------|------------------|----------------|
E----------------------|------------------|------------------|----------------|


    |   |   |     |       |   |   |   |     |   |   |    |      |   |   |    |
E----------------------|------------------|------------------|-----------------|
B-------------------10-|-10--s5---------5-|-7-----------10---|-10---9-------12-|
G--11---------11-12----|--------------7---|------------------|-----------------|
D----------------------|------------------|------------------|-----------------|
A----------------------|------------------|------------------|-----------------|
E----------------------|------------------|------------------|-----------------|


    |    |   |   |       |   |   |   |      |   |   |   |       |   |   |   |
E--------------------|-------------------|------------------|-------------------|
B--12---11-----------|-(11)--------------|-12---------------|-(12)--------------|
G--------------------|-------------------|------------------|-------------------|
D--------------------|-------------------|------------------|-------------------|
A--------------------|-------------------|------------------|-------------------|
E--------------------|-------------------|------------------|-------------------|


I ovo sve, tako tezak je jedan pokusaj za samo jedan dan
While my guitar gently weeps


Klati se klatno, zlato je zlato   (Sve, sve ove)
Bleda je senka, lepa i slepa      (godine ti si)
Spava li bajna, da li je tajna    (tu i)
Kako se klatno zlatilo zlatno     (cekas da nadem te)

Klati se klatno, zlato je zlato   (Znas da ljubav)
Bleda je senka, lepa i slepa      (slepa je kazi)
Spava li bajna, da li je tajna    (mi)
Kako se klatno zlatilo zlatno     (kako da cuvam te)


   |       |       |       |          |       |       |       |
E----------------------------------|----------------------------------|
B----------------------------------|----------------------------------|
G----------------------------------|----------------------------------|
D----------------------------------|----------------------------------| 2X
A--------------------------2-------|--------------------------2-------|
E--2-2-0-2-5---0-2---2-0-2-----5---|--2-2-0-2-5---0-2---2-0-2-----0---|


F#5 F#5 F#5 G5 G5 G5


Rifovi:
D5:  x 5 7 7 x x
E5:  x 7 9 9 x x
F#5: 2 4 4 x x x
G5:  3 5 5 x x x
A5:  5 7 7 x x x
B5:  7 9 9 x x x

***VERZIJA 2***
Transkripcija: Milan Pavlovic (paparaco@EUnet.yu)
Home         : http://www.yutabs.f2s.com

{Napomena: riffovi oznaceni zvezdicom(*) su priguseni (palm muted)}

  Uvod :
  H5                                H5
E|----------------|----------------|----------------|----------------|
H|----------------|----------------|----------------|----------------|
G|----*---*---*---|*---*---*---*---|*---*---*---*---|*---*---*---*---|
D|4---4---4---4---|4---4---4---4---|4---4---4---4---|4---4---4---4---|
A|2---2---2---2---|2---2---2---2---|2---2---2---2---|2---2---2---2---|
E|----------------|----------------|----------------|----------------|
  H5                                H5
E|----------------|----------------|----------------|----------------|
H|----------------|----------------|----------------|----------------|
G|*---*---*---*---|*---*---*---*---|*-------*---*---|----*-------*---|
D|4---4---4---4---|4---4---4---4---|4---4---4---4---|4---4---4---4---|
A|2---2---2---2---|2---2---2---2---|2---2---2---2---|2---2---2---2---|
E|----------------|----------------|----------------|----------------|
  H5                                H5
E|----------------|----------------|----------------|----------------|
H|----------------|----------------|----------------|----------------|
G|--------*---*---|*---*---*---*---|*-------*---*---|----*-------*---|
D|4-------4---4---|4---4---4---4---|4---4---4---4---|4---4---4---4---|
A|2-------2---2---|2---2---2---2---|2---2---2---2---|2---2---2---2---|
E|----------------|----------------|----------------|----------------|
  Mi                                         sve smo probali
  A5                                A5
E|----------------|----------------|----------------|----------------|
H|----------------|----------------|----------------|----------------|
G|--------*---*---|*---*---*---*---|*-------*---*---|----*-------*---|
D|2-------2---2---|2---2---2---2---|2---2---2---2---|2---2---2---2---|
A|0-------0---0---|0---0---0---0---|0---0---0---0---|0---0---0---0---|
E|----------------|----------------|----------------|----------------|
                                             i sve prodali
  G5                                G5
E|----------------|----------------|----------------|----------------|
H|----------------|----------------|----------------|----------------|
G|----------------|----------------|----------------|----------------|
D|--------*---*---|*---*---*---*---|*-------*---*---|----*-------*---|
A|5-------5---5---|5---5---5---5---|5---5---5---5---|5---5---5---5---|
E|3-------3---3---|3---3---3---3---|3---3---3---3---|3---3---3---3---|
                                             za samo jedan
  Fis5                                Fis5
E|----------------|----------------|----------------|----------------|
H|----------------|----------------|----------------|----------------|
G|----------------|----------------|----------------|----------------|
D|--------*---*---|*---*---*---*---|*-------*---*---|----*-------*---|
A|4-------4---4---|4---4---4---4---|4---4---4---4---|4---4---4---4---|
E|2-------2---2---|2---2---2---2---|2---2---2---2---|2---2---2---2---|
  dan
  H5                                H5
E|----------------|----------------|----------------|----------------|
H|----------------|----------------|----------------|----------------|
G|--------*---*---|*---*---*---*---|*-------*---*---|----*-------*---|
D|4-------4---4---|4---4---4---4---|4---4---4---4---|4---4---4---4---|
A|2-------2---2---|2---2---2---2---|2---2---2---2---|2---2---2---2---|
E|----------------|----------------|----------------|----------------|
  I sva                                         nasa nadanja
  A5                                A5
E|----------------|----------------|----------------|----------------|
H|----------------|----------------|----------------|----------------|
G|--------*---*---|*---*---*---*---|*-------*---*---|----*-------*---|
D|2-------2---2---|2---2---2---2---|2---2---2---2---|2---2---2---2---|
A|0-------0---0---|0---0---0---0---|0---0---0---0---|0---0---0---0---|
E|----------------|----------------|----------------|----------------|
                                             su izbledela
  D5                                D5
E|----------------|----------------|----------------|----------------|
H|----------------|----------------|----------------|----------------|
G|--------*---*---|*---*---*---*---|*-------*---*---|----*-------*---|
D|7-------7---7---|7---7---7---7---|7---7---7---7---|7---7---7---7---|
A|5-------5---5---|5---5---5---5---|5---5---5---5---|5---5---5---5---|
E|----------------|----------------|----------------|----------------|
                                             od cekanja
  Fis5                                Fis5
E|----------------|----------------|----------------|----------------|
H|----------------|----------------|----------------|----------------|
G|----------------|----------------|----------------|----------------|
D|----------------|----------------|----------------|----------------|
A|----------------|0---------------|----------------|2-------0-------|
E|2-------0---2---|------------2---|----2---0---2---|----------------|

  Fis5                                Fis5
E|----------------|----------------|----------------|----------------|
H|----------------|----------------|----------------|----------------|
G|----------------|----------------|----------------|----------------|
D|----------------|----------------|----------------|----------------|
A|----------------|0---------------|----------------|2-------0-------|
E|2-------0---2---|------------2---|----2---0---2---|----------------|

  Fis5                                Fis5
E|----------------|----------------|----------------|----------------|
H|----------------|----------------|----------------|----------------|
G|----------------|----------------|----------------|----------------|
D|----------------|2---------------|----------------|4-------2-------|
A|4-------2---4---|0-----------0---|----4---2---4---|2-------0-------|
E|2-------0---2---|------------2---|----2---0---2---|----------------|

  Fis5                                Fis5
E|----------------|----------------|----------------|----------------|
H|----------------|----------------|----------------|----------------|
G|----------------|----------------|----------------|----------------|
D|----------------|2---------------|----------------|----------------|
A|4-------2---4---|0-----------0---|----4---2---4---|4---4---4---4---|
E|2-------0---2---|------------2---|----2---0---2---|2---2---2---2---|

  Strofa:
H5
Toliko puta sam zamisljao
        A5
Kako me oblak nekud odneo 
        G5      
Negde daleko u zaborav
E5            Fis5       ---{E5 se pojavljuje samo u prvoj strofi}
vise mi nista ne znacis
H5          A5         D5 Fis5
While my guitar gently weeps

  Refren:
D        A
Sve, sve ove godine
      Em   G        A
Ti si tu i cekas da nadjem te 
D              A
Znas da ljubav slepa je
     Em G       A
Kazi mi kako da cuvam te

  Solo :
  D                D                D                D
E|----------------|----------------|----------------|----------------|
H|----------------|----------------|----------------|8-------10------|
G|/11-------------|(11)------------|(11)------------|----------------|
D|----------------|----------------|----------------|----------------|
A|----------------|----------------|----------------|----------------|
E|----------------|----------------|----------------|----------------|
  A                A                A                A
E|----------------|----------------|----------------|----------------|
H|10------\-------|5---------------|(5)-------------|--------5-------|
G|----------------|----------------|----------------|7---------------|
D|----------------|----------------|----------------|----------------|
A|----------------|----------------|----------------|----------------|
E|----------------|----------------|----------------|----------------|
  Hm               Hm               Hm               Hm
E|----------------|----------------|----------------|----------------|
H|5/7-------------|(7)-------------|(7)-------------|10--------------|
G|----------------|----------------|----------------|----------------|
D|----------------|----------------|----------------|----------------|
A|----------------|----------------|----------------|----------------|
E|----------------|----------------|----------------|----------------|
  E                E                E                E
E|----------------|----------------|----------------|----------------|
H|10--------------|9---------------|(9)-------------|(9)-------------|
G|----------------|----------------|----------------|----------------|
D|----------------|----------------|----------------|----------------|
A|----------------|----------------|----------------|----------------|
E|----------------|----------------|----------------|----------------|
  D                D                D                D
E|----------------|----------------|----------------|----------------|
H|----------------|----------------|----------------|8-------10------|
G|/11-------------|(11)------------|(11)------------|----------------|
D|----------------|----------------|----------------|----------------|
A|----------------|----------------|----------------|----------------|
E|----------------|----------------|----------------|----------------|
  A                A                A                A
E|----------------|----------------|----------------|----------------|
H|10------\-------|5---------------|(5)-------------|--------5-------|
G|----------------|----------------|----------------|7---------------|
D|----------------|----------------|----------------|----------------|
A|----------------|----------------|----------------|----------------|
E|----------------|----------------|----------------|----------------|
  Hm               Hm               Hm               Hm
E|----------------|----------------|----------------|----------------|
H|5/7-------------|(7)-------------|(7)-------------|10--------------|
G|----------------|----------------|----------------|----------------|
D|----------------|----------------|----------------|----------------|
A|----------------|----------------|----------------|----------------|
E|----------------|----------------|----------------|----------------|
  E                E                E                E
E|----------------|----------------|----------------|----------------|
H|10--------------|9---------------|(9)-------------|12--------------|
G|----------------|----------------|----------------|----------------|
D|----------------|----------------|----------------|----------------|
A|----------------|----------------|----------------|----------------|
E|----------------|----------------|----------------|----------------|
  Fis              Fis              Fis              Fis
E|----------------|----------------|----------------|----------------|
H|12--------------|11--------------|(11)------------|(11)------------|
G|----------------|----------------|----------------|----------------|
D|----------------|----------------|----------------|----------------|
A|----------------|----------------|----------------|----------------|
E|----------------|----------------|----------------|----------------|
  Fis              Fis              Fis              Fis
E|----------------|----------------|----------------|----------------|
H|----------------|----------------|----------------|----------------|
G|----------------|----------------|----------------|----------------|
D|----------------|----------------|----------------|----------------|
A|----------------|----------------|----------------|----------------|
E|6---------------|(6)-------------|(6)-------------|(6)-------------|
  H5               H5               H5               H5
E|----------------|----------------|----------------|----------------|
H|----------------|----------------|----------------|----------------|
G|----------------|----------------|----------------|----------------|
D|----------------|----------------|----------------|----------------|
A|----------------|----------------|----------------|----------------|
E|7---------------|(7)-------------|(7)-------------|(7)-------------|
  H5               H5               H5               H5
E|----------------|----------------|----------------|----------------|
H|----------------|----------------|----------------|----------------|
G|----------------|----------------|----------------|----------------|
D|----------------|----------------|----------------|----------------|
A|----------------|----------------|----------------|----------------|
E|7---------------|(7)-------------|(7)-------------|(7)-------------|

I ovo sve tako tezak je
Jak pokusaj za samo jedan dan

  Kraj :
  Fis5                                Fis5
E|----------------|----------------|----------------|----------------|\
H|----------------|----------------|----------------|----------------||
G|----------------|----------------|----------------|----------------||4X
D|----------------|2---------------|----------------|4-------2-------||
A|4-------2---4---|0-----------0---|----4---2---4---|2-------0-------||
E|2-------0---2---|------------2---|----2---0---2---|----------------|/
  Fis5             G5
E|----------------|----------------|
H|----------------|----------------|
G|----------------|----------------|
D|----------------|----------------|
A|4----4----4-----|5----5----5-----|
E|2----2----2-----|3----3----3-----|

  Korisceni akordi:
H5  -X24XXX
A5  -X02XXX
G5  -35XXXX
Fis5-24XXXX
D5  -X57XXX
E5  -02XXXX
D   -XX0232
A   -X02220
Hm  -X24432
E   -022100
Fis -244322