Van Gogh - Mama

Transkripcija: Vanja Cerimagic (fur_immer_punk@hotmail.com)
Home         : http://2akordi.net


main riff:
    A5      F5      G5
e-------------------------------------
h-------------------------------------
g-------------------------------------
d--7-7-7---3-3-3---5-5-5-5-5-5-5-5----
a--7-7-7---3-3-3---5-5-5-5-5-5-5-5----
e--5-5-5-0-1-1-1-0-3-3-3-3-3-3-3-3-0--

A5,F5,G5 x2

       A5           F5  G5
Vise nisam na zemlji,
         A5       F5  G5
U meni rusi se sve
         A5    F5     G5
Toliko toga slomilo je
            A5         F5            G5
Poslednju zelju da shvatim da smo ljudi.

       A5           F5 G5
Vise nisam na zemlji,
      A5     F5      G5
Evo,pustam telo da leti visoko,
A5       F5          G5
Previse umoran da gledam
A5   F5         G5
Ovu igru koju zovemo strah.

            A5   F5
	Ne boli me,
       G5
        Mama,
       A5     F5        G5
	Ovaj poslednji dan.
                  A5   F5
	Ne,ne,ne boli me,
       G5
        Mama,
       A5         F5      G5
	Ja dalje putujem sam.

                    C1
A5,F5.G5  uz	 e-----0-----
		 h-------1---
		 g--0-2------

                    C2
A5,F5,G5  uz    e-----0-----
                 h------1--0-
                 g--0-2------  sve x2

  A5  F5 G5
Mama,
       A5       F5            G5
Da li ovo je kraj o kom si pricala,
A5          F5      G5
Vec vidim daleki svet,spava,
A5      F5           G5
Molim sunce da ne probudi ga,

            A5   F5
	Ne boli me,
       G5
        Mama,
       A5     F5        G5
	Ovaj poslednji dan.
                  A5   F5
	Ne,ne,ne boli me,
       G5
        Mama,
       A5         F5      G5
	Ja dalje putujem sam.
              A5 F5 G5 uz C1
	Mama ne.
              A5 F5 G5 uz C1
	Mama ne.

A5      F5 G5
Stigao sam.
A5         F5         G5
Svi ovde lazu da na zemlji je raj,
A5         F5   G5
Takav ne zelim,
A5       F5         G5
Nisi me ucila da smejem se sam


            A5   F5
	Ne boli me,
       G5
	Mama,
       A5     F5        G5
	Ovaj poslednji dan.
                  A5  F5 G5
	Mama,ne boli me,
                A5      F5      G5
	Ja dalje,dalje putujem sam.
              A5 F5 G5
	Mama ne.
              A5 F5 G5 uz C1
	Mama ne.
              A5 F5 G5 uz C1
	Mama ne.
              A5 F5 G5 uz C1
	Mama ne.

                 A5  F5
	Vise ne letim,
       G5
	Mama,
       A5     F5    G5
	Ovde nisam sam.
                 A5  F5
	Vise ne letim,
       G5
	Mama,
       A5       F5         G5
	Plivam morem koje zove se kraj.

                 A5   F5 G5
	Vise ne letim,
               A5     F5    G5
	Ja ovde,ovde nisam sam.
                 A5  F5
	Vise ne letim,
       G5
	Mama ne,
       A5       F5         G5
	Plivam morem koje zove se kraj.
                 A5   F5 G5
	Vise ne letim
          A5 F5 G5
	Kraj
               A5 F5 G5
	Mama kraj
              A5 F5 G5
	Mama ne
                  A5 F5 G5
	Ovde je kraj


***VERZIJA 2***

Transkripcija: ???
Poslao       : Marko (lade@bendroz.ca)
Home         : ????


Ovo je glavni deo:                      ponekad ovako: 
  A          F            G            Am     F          G 
----------------------------------|------------------------------
----------------------------------|----5-------------------------
----------------------------------|----5---2----2---2---4---4---4
----------------------------------|--7-----3----3---3---5---5---5
7---7---7---3---3---3---5---5---5-|--7-----3----3---3---5---5---5
5---5---5---1---1---1---3---3---3-|--5-----1----1---1---3---3---3
 PM all 
  

 "druga" gitara 
  
    C 
--------0----------------- 
-----------1-------------- 
-0-h-2-------------------- 
-------------------------- 
-------------------------- 
--------------------------