Van Gogh - Manitua Mi

Transkripcija: Nikola Ivetich (webmaster@ludakuca.com)
Home         : http://2akordi.net


Pjesma pocinje iz A...
Ovako nekako...
            A
e-------------------------
B-------------------------
H-------------------------  3X
G-------------------------  
A---0~3--5-5-5-5-55-5-55--
E-------------------------
           A        C G
e----------------------------
B----------------------------
H----------------------------  
G-------------------5--------  
A---0~3--5-5-5-5----3--5-----
E----------------------3-----

i tako ide kroz pjesmu...

Ponovo rodjen kao vjetar jak,
vrisak sa neba neka bude znak,
kolik' ramena......
..........

Nemoj biti lud Nemoj biti lud Nemoj biti lud,
Gadno je vreme ovdje ne radi Cud....

I Onda onaj dio, 
A                  A---C  A---C  A---C  A--C
Ti ne znas sta je Ljubav, ponos, snaga i mir,
A                          C  G
ne znas sta je zakon kada osjecas bol.

TAKO NEKAKO, mada nisam siguran, mislim da samo 
ovo A---C, (Slide)  ne prevlaci do C 
Nego samo do H