Van Gogh - Neko Te Ima

Transkripcija: Marko Simovich (marersfc@net.yu)
Home         : http://2akordi.net/   


Pesma se zasniva na razlaganju e7, C i D akorada prema
jednostavnoj shemi. Postoji jos rif koji se svira u prelazu 
i solo na pocetku i posle refrena.
Solo koji ovde predstavljan je malo doteran vibratom i mozete
ga slobodno i dalje menjati po svojoj volji.

RAZLAGANjE (4x):

SOLO:

I STROFA:
(Svira se prema razlaganju)
Hteo bih negde da te vidim, kao slucajno,
u kom dzepu ovaj grad te nocas sakrio.

PRELAZ:
Sada ne mogu da zaspim, o-o,
nesto se dogodilo,
poludeo sam sasvim, otkad mislim na tebe,
sve se izmenilo.

SOLO:

II STROFA:
I kad sam s' tobom, kao da hodam, po vrelom asfaltu.
Taman kad se noge naviknu ti vise nisi tu.

PRELAZ:

REFREN:
e			   C		D		
Neko te ima nocas, neko te voli,
Neko te ima, to nisam ja, a-a-a (3x)

SOLO:

III STROFA:
Kad sam s'tobom, kao da padam a nikad ne padnem.
Gde te sakrio ovaj grad ne mogu da te pronadjem.

PRELAZ:
(Ovaj put svirati u punim akodrima, agresivno,
bez prigusenja)

REFREN:

RAZLAGANjE:
(akordi vaze samo za razlaganje i prelaz. 
u refrenu se sviraju kao puni)
e7: x22030
C :	032000
D :	054000

s = glisando
h = cekic
L = legato
... pustiti zicu da zveci

   e7			C		 D
e -------------|-----------|-----------|----------
H -------3-----|-----------|-----------|----------
G -----0---0---|-----0-----|-----0-----|----------
D ---2-------2-|---2---2---|---4---4*--|----------
A -------------|-3-------3-|-5-------5*|----------
E -0...--------|-----------|-----------|----------

(*U svirci na koncertu Djule je ponekad izostavljao ta 
  poslednja dva tona i zavrsavao razlaganje praznom D 
  zicom) 

SOLO:

e ---------------------------|-------------------------
H -s2-2--4-------------------|-s2-2--4-----------------
G ------------2-2-2~~~L0-----|-----------2-2-2h3L2-L0--
D ---------2---------------2~|---------2-------------2~
A ---------------------------|-------------------------
E ---------------------------|-------------------------

e ---------------------------|-------------------------
H -s2-2--4-------------------|-s2-2--4-----------------
G ------------2-2-2~~~L0-----|-----------2-2-2~~~...L0-
D ---------2---------------2~|---------2-------------2~
A ---------------------------|-------------------------
E ---------------------------|-------------------------

PRELAZ:
(svira se priguseno osim pred kraj)
   e           C       D  
e ----------|--------|-------|-------------------------
H ----------|--------|-------|-------------------------
G ----------|--------|-------|-------------------------
D ----2---2-|-2--2-2-|-4-4-4-|-------------------------
A ----2---2-|-3--3-3-|-5-5-5-|-------------------------
E -0----0---|--------|-------|-------------------------

Svako ko zna neka druga resenja slobodno nek mi se  
javi na marersfc@net.yu


***VERZIJA 2***
Transkripcija: pipss@mail.ru
Home         : http://2akordi.net/


INTRO:(|Em    |C  D  |)x2 + x2(sa beat-om)
INSTR: x4

VERSE:(|Em    |C  D  |)
Hteo bi negde da te vidim
kao slucajno
u kom dzepu ovaj grad 
te nocas sakrio

BRIDGE:
Sada ne mogu da zaspim..o..o..
nesto se dogodilo
poludeo sam sasvim
odkad' mislim na tebe
sve se izmenilo

INSTR:x4

VERSE:
Kad sam s tobom kao da hodam
po vrelom asfaltu
i taman kad se noge naviknu
ti vise nisi tu

BRIDGE:
Sada ne mogu da......

CHORUS:x2
Neko te ima nocas
neko te voli
neko te ima 
to nisam ja..(to nisam ja..a.a.a.a)

INSTR:x4

VERSE:
Kad sam s tobom kao da padam 
a nikad ne padnem
gde te sakrio ovaj grad 
ne mogu da te pronadem

BRIDGE:
I ne mogu da.....

CHORUS:x2
Neko te ima nocas....

SOLO:x4

CHORUS+SOLA:x1

_KRAJ_ 

MAIN RIFF:
    Em7            C         D 
---------------------------------------------- 
---------------------------------------------- 
-------7sd-----------0----------0------------- 
-----5----5------------2------4---4----------- 
---7--------7-----3------3s-5----------------- 
-0-------------------------------------------- 


***VERZIJA 3***
Transkripcija: Ivan Vasic (ivasic@cent.co.yu)
Home         : http://www.tablature.co.yu


Uvod:
e------------------------------------
h------------------------------------
g--------7-----------0----------0----
d------5---5-----------2------4---4--
a----7-------7-----3-------3\5-------
e--0---------------------------------

Ona mala solaza :
H-------------------------------
E-------------------------------
G---7--7br-9--------------------
D--------------7-7-7-7br-5------
A------------7-------------7-7--
E-------------------------------

Kroz pesmu umesto Em, C & D, moze da se svira 
(ustvari tako i treba)ovaj uvodni deo samo distorzijom i 
malo prigusenim zicama ...

Em            C D
Hteo bih negde da te vidim
kao slucajno
u kom dzepu ovaj grad te nocas sakrio
sada ne mogu da zaspim
o-o, nesto se dogodilo
poludeo sam sasvim
odkad mislim na tebe sve se izmenilo

Em      C   D    Em        C  D
Neko te ima nocas neko te voli
neko te ima to nisam ja  2x


***VERZIJA 4***
Transkripcija: Bojan Popovic (Bovi@sezam.co.yu)
Home         : http://www.tablature.co.yu


Strofa:
Em7            C D (Ovo se razlaze, vidi dole tablaturu)
Hteo bih negde da te vidim
kao slucajno
u kom dzepu ovaj grad te nocas sakrio
sada ne mogu da zaspim
o-o, nesto se dogodilo
poludeo sam sasvim
otkad mislim na tebe
sve se izmenilo


Refren:
Em      C   D    Em        C  D
Neko te ima nocas neko te voli
neko te ima to nisam ja  2x


E, sad razlaganje u strofi ide nekako ovako(nemam gitaru uz sebe,
pa ako primetite gresku, ili pak imate drugaciju verziju javite mi 
se na mail:Bovi@sezam.co.yu):

    Em7          C          D
--------------------------------     Slusaj pesmu. Po neki put Djule
------3--------------1--------3-\    ovde izostavi zadnju notu.
----0---0---0------0--------0--- \-> To je ova nota (D), tako da je
--2-------2------2--------4-----     zadnja nota 0 prag naprethodnoj
---------------3--------5-------     zici (G)
0-------------------------------
   ^
   |
Pusti da prva nota(E)
odzvanja duze (slusaj snimak)
pa onda kreni sa ostatkom.

Solo:
----------------------------
----------------------------
---7-7-7-9------------------
-----------7---7-7-7-10-----
------------------------7---
--------------------------0-

***VERZIJA 5***
Transkripcija: Milos Mladenovic Betmen
Home         : http://www.yutabs.f2s.com


  Uvod:

  Em7                               C                Dadd4
E|----------------|----------------|----------------|----------------|
B|----------------|----------------|----------------|----------------|
G|----------------|----7-----------|-------0--------|--------0-------|
D|-------------5--|-------5--------|----------2-----|-----4-----4----|
A|---------7------|----------7-----|3------------3--|/5--------------|
E|0---------------|----------------|----------------|----------------|


  Solo:

  Em                                C                D
E|----------------|----------------|----------------|----------------|
B|----------------|----------------|----------------|----------------|
G|----------------|----------------|---------2------|2----0----------|
D|---------7------|7------9--------|-----2----------|----------------|
A|----------------|----------------|7\--------------|----------------|
E|0---------------|----------------|----------------|-----------3----|

  Em                                C                D
E|----------------|----------------|----------------|----------------|
B|----------------|----------------|----------------|-h-p-p-h--------|
G|----------------|----------------|---------2------|2-3-2-0-2-------|
D|---------7------|7------9--------|-----2----------|----------------|
A|----------------|----------------|7\--------------|----------------|
E|0---------------|----------------|----------------|--------------3-|

  Em                                C                D
E|----------------|----------------|----------------|----------------|
B|----------------|----------------|----------------|----------------|
G|----------------|----------------|---------2---2--|2----0----------|
D|---------7---7--|7------9--------|-----2----------|----------------|
A|----------------|----------------|7\--------------|----------------|
E|0---------------|----------------|----------------|-----------3----|

  Em                                C                D
E|----------------|----------------|----------------|----------------|
B|----------------|----------------|----------------|----------------|
G|----------------|----------------|---------2---2--|2---------------|
D|---------7---7--|7------9--------|-----2----------|----------------|
A|----------------|----------------|7\--------------|----------------|
E|0---------------|----------------|----------------|----------------|


  Strofa:

  Em7                               C                Dadd4
E|----------------|----------------|----------------|----------------|
B|----------------|----------------|----------------|----------------|
G|----------------|----7-----------|-------0--------|--------0-------|
D|----------------|-------5--------|----------2-----|-----4-----4----|
A|---------7------|----------7-----|3------------3--|/5--------------|
E|0---------------|----------------|----------------|----------------|

  Em7                               C                Dadd4
E|----------------|----------------|----------------|----------------|
B|----------------|----------------|----------------|----------------|
G|----------------|----7-----------|-------0--------|--------0-------|
D|-------------5--|-------5--------|----------2-----|-----4-----4----|
A|---------7------|----------7-----|3------------3--|/5--------------|
E|0---------------|----------------|----------------|----------------|


  Refren I:

  E5                                C5               D5
 pm - - - - - - - - - - - - - - - - - - - - - - - - - - - - - - - - -
E|----------------|----------------|----------------|----------------|
B|----------------|----------------|----------------|----------------|
G|----------------|----------------|----------------|----------------|
D|------9---------|----9----x--x---|5-------x-------|7-----7--7--7---|
A|------7---x--x--|----7----x--x---|3-------x-------|5-----5--5--5---|
E|0---------x--x--|----0-----------|----------------|----------------|

  E5                                C               Dadd4
 pm - - - - - - - - - - - - - - - - 
E|----------------|----------------|----------------|----------------|
B|----------------|----------------|----------------|----------------|
G|----------------|----------------|-------0--------|--------0-------|
D|------9---------|----9----x--x---|----------2-----|-----4-----4----|
A|------7---x--x--|----7----x--x---|3------------3--|/5--------------|
E|0---------x--x--|----0-----------|----------------|----------------|


  Refren II:

  Em                                C                D
E|----------0-----|----0-----0-----|------0---0---0-|3--------2---2--|
B|----------0-----|----0-----0-----|------1---1---1-|3--------3---3--|
G|----------0-----|----0-----0-----|0-----0---0---0-|2--------2---2--|
D|2---------2-----|----------2-----|2-----2---------|0---------------|
A|2---------------|----------------|3---------------|----------------|
E|0---------------|----------------|----------------|----------------|


  Korisceni akordi:
Em    - 022000
Em7   - 0757xx
E5    - 0799xx
D     - xx0232
Dadd4 - x540xx
D5    - x577xx
C     - x32010
C5    - x355xx


Hteo bih negde da te vidim
Kao slucajno
U kom dzepu ovaj grad 
Te nocas sakrio

Sada no mogu da zaspim
Nesto se dogodilo
Poludeo sam sasvim
Od kad mislim na tebe
Sve se izmenilo

Neko te ima nocas
Neko te voli
Neko te ima to nisam ja

I kad sam s tobom kao da hodam
Po vrelom asfvaltu
I taman kad se noge naviknu
Ti vise nisi tu

I kad sam s tobom kao da padam
A nikad ne padnem
Gde te sakrio ovaj grad
Ne mogu da te pronadem
 
***VERZIJA 6***
Transkripcija: Nenad Djakovic ROCKER

Neko te ima nocas :: BASS :: /studijska/


     E  C  D   E  C  D
  G-------------------------------------------------------------
  D-------------------------------------------------------------
  A-------------------------------------------------------------
  E-0-8_8-10--0-8_8-10--0-0-0-0-0-0-0-0-8-8-8-8-10-10-10-10-----

  G-------------------------------------
  D-------------------------------------
  A-------------------------------------
  E-0-0-0-0-0-0-0-0-8-8-8-8-10-10-10-10-

  Sad pocinje tematski solo na gitari,na basu se moze mnogo improvizovati
  a evo vam i moje omiljene improvizacije u ovom delu pesme:
    E       C      D
  G------------------------
  D-----5-7---5------5-----
  A-7-7-----3---3--5---5---
  E------------------------

   part 1
  G-------------------------------------------------
  D-------------------------------------------------
  A-7-------7-7---3-3----5-----7-5-7---3-3--5-5-----
  E-------------------------------------------------
    Hteo bi negde da te vidim      kao  slucajno
  
    part 1                                  
    U kom dzepu 
    ovaj  grad te
    nocas sakrio
    sada ne mogu da zaspim   

   part 2                                   
  G--------------------------------------
  D--------------------------------------
  A--------------------------------------
  E-0-0-0-0-0-0-0-0-8-8-8-8-10-10-10-10--
        zaspim      oo 

    part 2                  
    Nesto se dogodilo
    Poludeo sam sasvim
    Otkad mislim na tebe
    Sve se izmenilo

   Refren:                          prelaz
  G---------------------------------4-5-4-2-4----4-2----------------------------------
  D--------------------------------------------------5-2------------------------------
  A-7-------3-3--5-5--5---------3----------------------------3---5---7----------------
  E-----------------------------------------------------------------------------------
    Neko te ima nocas Neko te voli               Neko te ima to nisam ja /to nisam ja/

  *Napominjem da je cela pesma savrsena za improvizovanje na basu 
   ovo je samo ono upecatljivo sto morate svirati pogotovo prelaz u refrenu!