Van Gogh - Opasan Ples - Live

Transkripcija: Vanja Cerimagic (fur_immer_punk@hotmail.com)
Home         : http://2akordi.net



Live verzija - Banja Luka 1999/2000

Bass: (verse)
    c                   Ab
G|------------------------|------------------------|
D|------------------------|------------------------|
A|--3-----------------5/6-|------------------------|
E|---------3--6/8---------|------------------------|


verse(I):a--3---6-----
         e---------4--

    (II):a--3---------
         e-----4---6--

     I                          I
Ovaj tango za mene, tebe, nju i njega
               I                    II
Je tako opasan ples, po nasu divlju glad.
                    I                   I
Tako tesko se u nama, lomi daljina koja kida,
            I
A umreti je lako, svaki put nebo zna,
          II
Cuje glas, ti si sam, i plasi te do smrti.

     c                 B               G#            B  G
     Znam zelis da sam tu da hodamo po tlu toplom od suza
     c                  B             G#            B  G
     Noc kad mene ne bude pomisli da san pada ti na lice
     c            B                G#            B  G
     Gde saputace mrak, zastace ti dah i cekaces sama

     I                          I
Ovaj tango za mene, tebe, nju i njega
               I                    II
Je tako opasan ples, po nasu divlju glad.
                    I                   I
Tako tesko se u nama, lomi daljina koja kida,
            I
A umreti je lako, svaki put nebo zna,
          II
Cuje glas, ti si sam, i plasi te do smrti.

     c                 B               G#            B  G
     Znam zelis da sam tu da hodamo po tlu toplom od suza
     c                  B             G#            B  G
     Noc kad mene ne bude pomisli da san pada ti na lice
     c            B                G#            B  G
     Gde saputace mrak, zastace ti dah i cekaces sama

D#5 C5 F5 C5

     c                 B               G#            B  G
     Znam zelis da sam tu da hodamo po tlu toplom od suza
     c                  B             G#            B  G
     Noc kad mene ne bude pomisli da san pada ti na lice
     c            B                G#            B  G
     Gde saputace mrak, zastace ti dah i cekaces sama

Instrumental:

     c                         B
E|--------------------------|------------------------|
B|---6/8--------6-----------|--6------6--------------|
G|-----------------8--7--8--|------------8--7--5--7--|
D|--------------------------|------------------------|
A|--------------------------|------------------------|
E|--------------------------|------------------------|

    G#                       B          G
E|----------------------|----------------------|
B|----------------------|----------------------|
G|--8--------7--5--4----|--5/7--------5--------|
D|----------------------|----------------------|
A|----------------------|----------------------|
E|----------------------|----------------------|

/- slide

   c  B  G# G D#5  C5 F5
e--3--1--4--3-------------
h--4--3--4--3-------------
g--5--3--5--4-------------
d--5--3--6--5--8---5--10--
a--3--1--6--5--6---3--8---
e--------4--3-------------