Van Gogh - Spisak Razloga

Transkripcija: Milan Sencanski


Intro: Dm B F C

Dm
Bilo je dana kada videla nisi
C                 B
pored mene svoje korake
B                  F
bilo je dana ti si verovala
   A
da ja sam taj koji te najbolje zna

I tih dana sam te cuvao
na golim ledjima te nosio
telom od nevolja te branio
dok ti si spavala, ja sam plakao

B       F            C       Dm
Nisi ti dobra kolk'o los sam ja
B      F             C    Dm
negde postoji spisak razloga
B       F        C   Dm
da se osecam k'o utesna
A
nagrada za tvoje poraze

Bilo je dana kada video nisam
pored sebe tvoje korake
u oluji pescanog sata
mi smo se polako gubili


***VERZIJA 2***
Transkripcija: Aleksandar Krstic (alexfromserbia@hotmail.com)

Intro:
E|------------------|------------------|------------------|
H|------------------|------------------|------------------|
G|----------2-2-----|----------5-5-----|----------2-2-----| B5,F5,C5
D|--0-0-3-0-----2-3-|--0-0-3-0-----2-3-|--0-0-3-0-----2-3-|
A|------------------|------------------|------------------|
E|------------------|------------------|------------------|

Solo:
E|--------------------------------------------------------|
H|--6-----6--6-----6--8-10-6-5----6-----6-8-8-10-6-6/10---|
G|----7-5------7-5-------------7----7-5-------------------|
D|--------------------------------------------------------|
A|--------------------------------------------------------|
E|--------------------------------------------------------|

E|--------------------------------------------------------|
H|--6-----6--6-----6--8-10-6-5-6--6-----6-8-8-10-6-6/10---|
G|----7-5------7-5------------------7-5-------------------|
D|--------------------------------------------------------|
A|--------------------------------------------------------|
E|--------------------------------------------------------|

Glas:
E|-13-13-13-10----------10----|
H|-------------13-11-13----11-|
G|----------------------------|
D|----------------------------|
A|----------------------------|
E|----------------------------|


Dm
Bilo je dana kada videla nisi
C                 B
pored mene svoje korake
B                  F
bilo je dana ti si verovala
   A(V)
da ja sam taj koji te najbolje zna...


B       F            C       Dm A
Nisi ti dobra kolk'o los sam ja
B      F             C    Dm A
negde postoji spisak razloga
B       F        C   Dm A
da se osecam k'o utesna
A
nagrada za tvoje poraze...