Van Gogh - Spunk & Spank

Transkripcija: Vai
Album        : Hodi


E||--------------||
B||--------------||
G||--------------||
D||--------5h7---||
A||--5h-7--------||
E||------------5-||

Strofa:
C D Am
      Kako dati ime deci
G D Am
     Blizanci su mali sveci
C D Am
     Kupi tata nama tenk
G D  Am
   I volece te Spunk i Spenk.

REF:
G D     Am   G  D  Am
    Oni sami znaju svasta
G D Am        G        D    Am
    Kako biti svoj kad zove masta
G D      Am
  Divlja deca
G D       Am
  Spunk i Spenk
G D Am          G      D    Am        G    D    Am
    dosli su na svet I kazu beng beng beng beng beng !

E||--------------||
B||--------------||
G||--------------||
D||--------5h7---||
A||--5h-7--------||
E||------------5-||

Strofa:
Nek se plase svi sto mole
Spunk i Spenk bas takve vole
Divlja snaga njima godi
Spunk i Spenk su na slobodi.

REF:
Oni sami znaju svasta
Kako biti svoj kada zove masta
Divlja deca, ooo divlja deca, spunk i spenk!

Solo

Oni sami znaju svasta
Kako biti lud kada zove masta
Divlja deca!

Sad ide prelaz, odprilike ovako:
E||--------------|-------------|-----------------------||
B||--5----8--7-7-|--5--7--5--7-|--5----8--7-7--5--7----||
G||--5----8--7-7-|--5--7--5--7-|--5----8--7-7--5--7----||
D||--------------|-------------|-----------------------||
A||--------------|-------------|-----------------------||
E||--------------|-------------|-----------------------||

Spunk pazi metak. Hvala Spenk!

REF:
Oni sami znaju svasta
Kako biti lud kada zove masta
Divlja deca, spunk i spenk
Dosli su na svet i kazu beng beng beng beng beng!

Spunk i spenk