Van Gogh - Sreca

Transkripcija: Milos Mladenovic Betmen
Home         : http://www.yutabs.f2s.com


  Uvod:
E|----------------|----------------|----------------|----------------|
B|----------5-----|----------------|-b-b-b-b--------|-----------6----|
G|----------------|-7--------------|4-5-4-5-4-------|------5---------|
D|----------------|----------------|----------------|-7--------------|
A|0---------------|----------------|----------------|----------------|
E|----------------|----------------|----------------|----------------|


  Strofa:
  E5               D5               C#5+             C5
E|----------------|----------------|----------------|----------------|
B|----------------|----------------|----------------|----------------|
G|--------9-------|------7---------|------------6---|----------5-----|
D|-----------9----|-----------7----|--------7-------|-------5-----5--|
A|7---------------|5---------------|4---------------|3---------------|
E|----------------|----------------|----------------|----------------|


  Refren:
  E5               D5               C#5+             C5
E|----------------|----------------|----------------|----------------|
B|----------------|----------------|----------------|----------------|
G|----------------|----------------|----------------|----------------|
D|9----9------x---|7-7----7-7-7-7-7|7----7------x---|5-5----5-5-5-5-5|
A|7----7------x---|5-5----5-5-5-5-5|4----4------x---|3-3----3-3-3-3-3|
E|----------------|----------------|----------------|----------------|


  Korisceni akordi:
E5    - x799xx
D5    - x577xx
C#5+  - x476xx
C5    - x355xx


Avion, spreman za let u buducnost ceka
Moze samo par njih i to pozeljnih
Danimo stojimo u redu, tri po dva
I niko ne prica
Niko ne sme mnogo da prica
Sreca - njihova laz
Krivi misle - dalje je bolje
Krivi misle - iz koze dok moze
Ovo je slika svega, da, sto ne mogu da shvatim
Ovo je cena koju necu nikom da platim
Sreca - kakva laz
Sreca - prevara za nas

Ona ne voli
Ni tebe ni mene
Ona ne voli
Dovoljno ni sebe

Sad sam siguran u to sto zelim
Sasvim sam siguran - ona nas vara
Ona prodaje nas za gomilu para
Sreca
Nista ne brini
Mi smo tu, na korak od sna
Ti i ja
Ti i ja...

***VERZIJA 2***
Transkripcija: Ivan Vasic (ivasic@cent.co.yu)
Home         : http://www.tablature.co.yu



Intro
E|----------------------------|
A|-0-----0------0-------2h3---|
D|-----------------9~~--------|
G|----9-----7~~-------------0-|
H|----------------------------|
E|----------------------------|

Strofe:
E|-0-------------------------|
A|-7---7--5---5--4-----3-----|
D|---9------7------2-----2---|
G|-------------------0-----0-|
H|---------------------------|
E|---------------------------|

Avion, spreman za let u buducnost ceka,
moze samo par njih i to pozeljnih.
Danima stojimo u redu, tri po dva,
i niko ne prica, niko ne sme mnogo da prica -
sreca... njihova laz....
Krivi misle dalje je bolje,
krivi misle iz koze dok moze.
Ovo je slika svega da sto ne mogu da shvatim.
Ovo je cena koju necu nikom da platim...
Sreca... kakva laz... Sreca ? Prevara za nas !

Ref:
   E          D          Cis        C
E|-0-0-0-0--|----------|----------|---------|
A|-7-7-7-7--|-5-5-5-5--|-4-4-4-4--|-3-3-3-3-|
D|-9-9-9-9--|-7-7-7-7--|-6-6-6-6--|-5-5-5-5-|
G|-9-9-9-9--|-7-7-7-7--|-6-6-6-6--|-5-5-5-5-|
H|----------|----------|----------|---------|
E|----------|----------|----------|---------|

Ona ne voli, ni mene ni tebe,
ona ne voli dovoljno ni sebe.

Sada ide intro rif, pa opet refren....

Sad sam siguran, u to sto zelim.
Sasvim sam siguran, ona nas vara.
Ona prodaje nas za gomilu para,
Sreca...nista ne brini, mi smo tu
na korak od sna, ti i ja.... ti i ja...

Opet refren i the End.