Van Gogh - Tanka Nit

Transkripcija: Zli (mustafanadal@yahoo.co.uk)


Uvod: Dmol C G x3 F G

                             D mol
Rekla je "stani"
C        G
Nisam znao kako 
                               D mol
Teklo je vreme
C                G
Ja sam mislio tek tako
                            D mol    
Ona je rekla "mi"
C             G
Nisam mislio na nas
                      F                    G
Rodjen da hodam da ne cujem glas
 
/*Isto za sve ostale strofe*\

Ponovo ta pomalo sumnjiva
Sloboda nije cekala
Kao kamen kada padne u duboku vodu
I ja bih pao ali nemam gde

Njene tihe su niti mi zarobile telo
Tanke niti ljubavi
Tesko je bolu da zakuca na vrata
A meni jos teze da otvorim da

Ref:

                        D mol         F   G
Javi mi da me jos uvek voli
                        D mol         F   G 
Javi mi da li se dobro ljubi
                         D mol         F   G
Javi mi odgovor dugo cekam
                      F                 G
Moram biti jak da podnesem i to

Javi mi kako da idem dalje
Javi mi satisu tako gluvi
Javi mi odgovor dugo cekam 
Moram biti jak da podnesem i to

Kad otplove snovi ljubavboli
Srce se zbuni I pocne da moli 
Put srece kad daleko se predje
Do kraja se nikad ne obrise sam

Gloria...

***VERZIJA 2***
Transkripcija: kolja007


Uvodni solo:
  Dm               Dm               C                G
E|----------------|----------------|----------------|----------------|
H|----------------|----6-----------|----------------|---8--------6---|
G|-------7--------|---------7------|-------5--------|----------------|

  Dm               Dm               C                G
E|----------------|----------------|----------------|----------------|
H|----------------|----6-----------|----------------|---8-------10---|
G|-------7--------|---------7------|-------5--------|----------------|

  Dm               Dm               C                G
E|----------------|----------------|----------------|----------------|
H|----------------|----6-----------|----------------|---8--------6---|
G|-------7--------|---------7------|-------5--------|----------------|

  F                F                G                G
E|----------------|----------------|----------------|----------------|
H|------6---------|----6------8----|---10------8----|---6------------|
G|-7--------------|----------------|----------------|-----------7----|

To bi trebalo biti to.