Vatra - Sunce

Album        : Andjeo s greskom
Transkripcija: newals (newalss@walla.com)


Am
F
C
G
s - slide


UVOD: Am F C Am F G

UVOD SOLO:
|-----------------|-----------------|-----------------|------------------|
|--------5-6-5----|--------5-6-5---8|8---6---5--------|8---------8-------|
|----5-7-------5--|----5-7-------5--|------------5----|----4-5-------4-5-|
|5-7-------------5|5-7--------------|-----------------|------------------|
|-----------------|-----------------|-----------------|------------------|
|-----------------|-----------------|-----------------|------------------|

|-----------------|-----------------|-----------------|------------------|
|--------5-6-5----|--------5-6-5---8|8---6---5--------|8---------8---8---|
|----5-7-------5--|----5-7-------5--|------------5----|----4-5-----------|
|5-7-------------5|5-7--------------|-----------------|------------------|
|-----------------|-----------------|-----------------|------------------|
|-----------------|-----------------|-----------------|------------------|


Am
 Zavuci se pod kozu, tiho kao u krevet
                     F        C
 dok gledas mi kroz oci da li vidis sve sto sanjam nocu ja
Am
 poljubi moju mrznju zbog nje vec dugo ja ne znam za nas
              F             G
 probudi moje noge neka nas nose

REF:
            Am       F
    Gdje sunce slusa rijeci
          C
    i kada ne cuje nas glas
            Am       F
    gdje sunce ljubi lice
              G                       Am
    mozda bas danas nije pravi dan za kraj


UVOD SOLO(samo drugi dio)

Am
 I pricaj mi o nama jos uvijek ne znam sve sto ti znas
               F         G
 dok hodamo po vodi nebo spusta lice

REF:
    Sad sunce slusa rijeci
    i kada ne cuje nas glas
    sad sunce ljubi lice

    Sad sunce slusa rijeci
    i kada ne cuje nas glas
    sad sunce ljubi lice
    mozda bas danas nije pravi dan za kraj

SOLO:

|------------3-s-5-s-7-s-8---12---13-12---12-17-12-17-12-17-12-17-12-10-10-s-0--|
|--------5-6--------------------------------------------------------------------|
|----5-7------------------------------------------------------------------------|
|5-7----------------------------------------------------------------------------|
|-------------------------------------------------------------------------------|
|-------------------------------------------------------------------------------|

REF:
    Sad sunce slusa rijeci
    i kada ne cuje nas glas
    Sad sunce ljubi lice
    mozda bas danas nije pravi dan za bye, bye

    Ta bye, bye, bye, bye, bye, bye, bye

    Mozda bas danas nije pravi dan za bye bye