Vlatko Stefanovski - Jovano, Jovanke

Transkripcija: Ivan Djacic (djacic@yahoo.com)


intro: E, A, E
tema: E, Am Dm G C, Am Dm, E F E Dm E F E
         Am Dm G C, Am Dm, E F E Dm E F E

< tema>
< solo: E>
< tema>
< kraj: Am>

                 ^  ^
/--------------( *  * )--------------\
|====================================|
|        < DjAkOn   StRaSnI >        |
|     CrambambulyPunch@yahoo.com     |
|    CrambambulyPunch@popstar.com    |
\------------------------------------/

***VERZIJA 2***
Transkripcija: Dacha (dacha608@hotmail.com)
Album        : Live in New York

Napomena:
ovo je verzija sa CD-a Live in New York. Postoje izvesne
razlike izmedju ove i studijske verzije, ali je sve stvar improvizacije.

Takt za celu kompoziciju je 7/8 (je'n dva tri, je'n dva, je'n dva)

p - pull-off
h - hammer-on
b - band
s - slide


[Deo u kom se ubacuje gitara, 01:15]
   .   .   .   .   .   .   .      .   .   .   .   .   .   .
E------------------------------|------------------------------|
B------------------------------|------------------------------|
G--9---------------------------|-10---9-----------------------|
D--9---------------------------|-10---9-----------------------|
A--7---------------------------|--8---7-----------------------|
E------------------------------|------------------------------|

   .   .   .   .   .   .   .      .   .   .   .   .   .   .
E------------------------------|------------------------------|
B------------------------------|------------------------------|
G--7---9-----------------------|-10---9-----------------------|
D--7---9-----------------------|-10---9-----------------------|
A--5---7-----------------------|--8---7-----------------------|
E------------------------------|------------------------------|

   .   .   .   .   .   .   .      .   .   .   .   .   .   .
E------------------------------|------------------------------|
B------------------------------|------------------------------|
G--7-9-------------------------|-10---9-----------------------|
D--7-9-------------------------|-10---9-----------------------|
A--7-7-------------------------|--8---7-----------------------|
E------------------------------|------------------------------|

   .   .   .   .   .   .   .      .   .   .   .   .   .   .
E------------------------------|------------------------------|
B------------------------------|------------------------------|
G--7---9-----------------------|-10---9-----------------------|
D--7---9-----------------------|-10---9-----------------------|
A--5---7-----------------------|--8---7-----------------------|
E------------------------------|------------------------------|

[Solo 1]
   .   .    .    .   .    .   .     .   .   .   .   .   .   .
E---------------------------------|------------------------------|
B--9-------12---10--p9------------|------------------------------|
G------------------------10---9---|-9----------------------------|
D---------------------------------|------------------------------|
A---------------------------------|------------------------------|
E---------------------------------|------------------------------|

   .   .    .    .     .    .   .     .   .    .   .    .    .   .
E-----------------------------------|-----7---10---8h10p8p7----------|
B------9---12---10h12p10p9----------|-----------------------10---9---|
G--------------------------10---9---|--------------------------------|
D-----------------------------------|--------------------------------|
A-----------------------------------|--------------------------------|
E-----------------------------------|--------------------------------|

   .   .   .   .   .   .   .     .   .    .   .    .    .   .
E--7---------------------------|-7-------10---8h10p8-7----------|
B------------------------------|-----------------------10---9---|
G------------------------------|--------------------------------|
D------------------------------|--------------------------------|
A------------------------------|--------------------------------|
E------------------------------|--------------------------------|

   .      .   .      .   .   .   .     .   .   .   .   .    .   .
E--7---8b10-------8b10---------------|-7-------7---8-------10-------|
B------------------------------------|------------------------------|
G------------------------------------|------------------------------|
D------------------------------------|------------------------------|
A------------------------------------|------------------------------|
E------------------------------------|------------------------------|

[Solo 2]
    .   .    .    .   .    .   .      .    .    .    .   .    .    .
E--12-------12---12-------12-------|-12---10---12---13-------13--p12---|
B----------------------------------|-----------------------------------|
G----------------------------------|-----------------------------------|
D----------------------------------|-----------------------------------|
A----------------------------------|-----------------------------------|
E----------------------------------|-----------------------------------|

    .   .    .    .   .    .   .      .   .    .    .   .   .    .
E--10-------10---10-------10-------|-10---8---10---12-----------12p10-|
B----------------------------------|----------------------------------|
G----------------------------------|----------------------------------|
D----------------------------------|----------------------------------|
A----------------------------------|----------------------------------|
E----------------------------------|----------------------------------|

    .   .   .   .   .    .    .         .   .    .        .   .   .   .
E--p8-------8---8-------10---12---|-12h13-------12h13p12-10-------8-------|
B---------------------------------|---------------------------------------|
G---------------------------------|---------------------------------------|
D---------------------------------|---------------------------------------|
A---------------------------------|---------------------------------------|
E---------------------------------|---------------------------------------|

   .    .   .   .   .   .   .      .   .    .   .    .    .   .
E--8h10p8p7-7---8---7---8---10---|-7-------10---8h10p8p7----------|
B--------------------------------|-----------------------10---9---|
G--------------------------------|--------------------------------|
D--------------------------------|--------------------------------|
A--------------------------------|--------------------------------|
E--------------------------------|--------------------------------|

   .   .   .    .   .   .   .         .   .   .   .   .   .   .
E----------7--------------------|---------------------------------|
B--9-----------10---9---6-------|-6h9p6--s5-----------------------|
G-------------------------------|---------------------------------|
D-------------------------------|---------------------------------|
A-------------------------------|---------------------------------|
E-------------------------------|---------------------------------|

[Prelaz]
   .   .   .   .   .    .   .
E--7-------7---8-------10-------|
B-------------------------------|
G-------------------------------|  [Solo 2]
D-------------------------------|
A-------------------------------|
E-------------------------------|

[Solo 1] + [Solo 2] + [Prelaz] + [Solo 2]


***VERZIJA 3***
Transkripcija: Peja (dalibor@zivinicebih.com)

Napomena:
Tab sam preuzeo od Dacha (dacha608@hotmail.com)
pa sam samo prepravio prvu gitaru u drugu...Nisam nesto posebno
pazio na ritam i pisao sam malo pojednostavljenu verziju radi lakseg
citanja TAB-a,pa nece biti problem jos malo to iskomlikovati:)


DRUGA GITARA, odnosno ovaj tab se ukljucuje na mjestu prelaza i
svira samo prelaz i Solo 2
   .      .   .      .   .   .   .     .   .   .   .   .    .   .
E------------------------------------|------------------------------|
B------------------------------------|-9-------9---10------12-------|
G------------------------------------|------------------------------|
D------------------------------------|------------------------------|
A------------------------------------|------------------------------|
E------------------------------------|------------------------------|

[Solo 2]
    .   .    .    .   .    .   .      .    .    .    .   .    .    .
E----------------------------------|-----------------------------------|
B--13-------13---13-------13-------|-13---12---13---15-------15--p13---|
G----------------------------------|-----------------------------------|
D----------------------------------|-----------------------------------|
A----------------------------------|-----------------------------------|
E----------------------------------|-----------------------------------|

    .   .    .    .   .    .   .      .   .    .    .   .   .    .
E----------------------------------|----------------------------------|
B--12-------12---12-------12-------|-12-------12---13-----------13p12-|
G----------------------------------|------14--------------------------|
D----------------------------------|----------------------------------|
A----------------------------------|----------------------------------|
E----------------------------------|----------------------------------|

    .   .   .   .   .    .    .         .   .    .    .   .   .   .
E---------------------------------|-----------------------------------|
B-----------------------12---13---|-13h15-------13---12---10----------|
G--14------14---14----------------|-----------------------------------|
D---------------------------------|-----------------------------------|
A---------------------------------|-----------------------------------|
E---------------------------------|-----------------------------------|

   .    .   .   .   .   .   .      .   .    .   .    .    .   .
E--------------------------------|--------------------------------|
B--12---10--9---10--9---10--12---|-9-------12--10h12p10p9---------|
G--------------------------------|------------------------10--9--9|
D--------------------------------|--------------------------------|
A--------------------------------|--------------------------------|
E--------------------------------|--------------------------------|

[Prelaz]
   .   .   .   .   .    .   .
E--9-------9---10-------12------|
B-------------------------------|
G-------------------------------|  [Solo 2]
D-------------------------------|
A-------------------------------|
E-------------------------------|


***VERZIJA 4***
Transkripcija: Igor Medarevic - mmarko@blic.net
Home         : www.2akordi.net


Uvod
E-------------------------- ----------------------------------
H--9-12-10-9h10p9---------- --12-15-13-12h13p13-----10/12-~~--
G----------------10-9-9-~~- -------------------14-13----------
D-------------------------- ----------------------------------
A-------------------------- ----------------------------------
E-------------------------- ----------------------------------

Prelaz           Figura 1
E--------------- -12b--12b-12b--12b-12b--12-12h13-13-12h13p12--
H--12--12-13-15- ----------------------15----------------------
G--------------- ----------------------------------------------
D--------------- ----------------------------------------------
A--------------- ----------------------------------------------
E--------------- ----------------------------------------------

E----------------------------12b-~----------------12-12h13-12--
H--15b--15b-15b--15b-15p13h15-------13b-13b-13b-15-------------
G--------------------------------------------------------------
D--------------------------------------------------------------
A--------------------------------------------------------------
E--------------------------------------------------------------

E--10h12p10---------------------------------------------
H----------13-13h15-13-12-13-15-12-15-13-12h13p12-------
G------------------------------------------------14-13--
D-------------------------------------------------------
A-------------------------------------------------------
E-------------------------------------------------------

E-----------------------------
H----12-----------------------
G--13--14-13-10-12-10-9-9-~~--
D-----------------------------
A-----------------------------
E-----------------------------

Kraj
E--------------
H--------------
G--4--4-5-7----
D-----------2--
A-----------0--
E--------------

Uvod
Prelaz
Figura 1
Figura 1
Uvod
Prelaz
Figura 1
Figura 1
Solo-klavijature
Uvod
Prelaz
Figura 1
Figura 1
Kraj

* Ovaj dio mozete svirati pre Uvoda,odlicno zvuci.To je neka
* starija verzija ove stvari koju nije svirao Leb i sol nego neka
* druga grupa.

E---------10---------------------------------
H--9-10-12--13-13-13-12-12-10h12p10-9--------
G------------------------------------10-9-9--
D--------------------------------------------
A--------------------------------------------
E--------------------------------------------

E---------10-------------------
H--9-10-12--13-13-13-12-12b-\--
G------------------------------
D------------------------------
A------------------------------
E------------------------------

E---------10---------------------------------
H--9-10-12--13-13-13-12-12-10h12p10-9--------
G------------------------------------10-9-9--
D--------------------------------------------
A--------------------------------------------
E--------------------------------------------

E------------------------------
H--13-12-10-12-10h12p10-9------
G------------------------10-9--
D------------------------------
A------------------------------
E------------------------------