Vojicic Mladen - Tifa - Bice Pjesma

Transkripcija: Partibrejkers


Uvod: | D | A | E |   3X

Strofa: |F#m | D | A | E |

Krades mi san ubijas dan,
nestajes sa zvijezdama
na usnama dah sjevera
ledi se krv u venama.

I mada sam proci ce znam,
ludo moja, blesava,
opet ce tad topao dah,
zastati na usnama.

Refren:
E----------5-------|----------5-----------------
H-----7------7---7-|------5-----5---5-----------
G---7---7------7---|----6---6-----6-------------
D------------------|----------------------------
A-5----------------|----------------------------
E------------------|-5--------------------------

E----------7-------|-7-------7------------------
H-----9------9---9-|---9---9---9---9------------
G---9---9------9---|-----9-------9--------------
D------------------|----------------------------
A-7----------------|----------------------------
E------------------|----------------------------

I bice pjesma
ljepsa od svih,
i bice vina
najljepsi stih.


D5 A5 E5

I bice pjesma
ljepsa od svih,
i bice vina
najljepsi stih.


Solo: Ritam gitara svira   |F#m | D | A | E |

E---------------------------------------------
H----------------10--7----12b14...r12--10--12-
G---------7---7-------------------------------
D----7--9---9---------------------------------
A--9------------------------------------------
E---------------------------------------------
 pm..........

E---------------------------------------------
H-12p10--pbr12--10----------------------------
G------------------11-------------------------
D---------------------------------------------
A---------------------------------------------
E---------------------------------------------

E----------------------------------------------
H-12/14--12p10p9h10-12--12p10p9h10--12---------
G----------------------------------------------
D----------------------------------------------
A----------------------------------------------
E----------------------------------------------
         Ph
E----------------------------------------------
H----------------------------------------------
G----------------------------------------------
D--------11---9-11------------9-11-12-11-------
A-------------------9---11-12------------------
E--14\-----------------------------------------
  Ph
E-14-------------------------------------------
H----------------------------------------------
G----------------------------------------------
D------9--9h11-----9/11--11--9p7p6h7h9---------
A--------------9-------------------------------
E----------------------------------------------
                 Ph
E----------------14----------------------------
H----------------------------------------------
G----------------------------------------------
D-7--9p7--9------------------------------------
A----------------------------------------------
E----------------------------------------------