Vojicic Mladen - Tifa - Dobar Dan Drugovi Moji (samo Ljubav Postoji)

Transkripcija: ZELE_JAGODE


Uvod G Cmaj7 D G     (Cmaj7 : x32033)


C   D   G   C    D   G
Dobar dan, drugovi moji

C    D       G  (bas:G F#)c   D      G
neka niko od vas ne spava,    ne spava.
Ma hajde drugovi moji
haj'mo slozno svi, svima reci
da ljubav, ljubav postoji.

Samo prati me, prati me,
i vjeruj mi, da ljubav, ljubav postoji.

Drugovi moji, ljubav postoji,
nije tesko pronaci, pronaci nju
jer ljubav postoji.

Samo prati me, prati me,
i vjeruj mi, da ljubav, ljubav postoji.

Solo
e-10b12--10-8-10--7--------------------------
H--------------------8--10b12-10b12--10br12--
G--------------------------------------------
D--------------------------------------------
A--------------------------------------------
E--------------------------------------------

e----10b12--10-8-10-7------------------------
H-8-------------------10br12-8--7--10br12--8-
G--------------------------------------------
D--------------------------------------------
A--------------------------------------------
E--------------------------------------------