Vojicic Mladen - Tifa - Grbavica

Transkripcija: Damir Fific (dd3@iname.com)
Home         : http://2akordi.net


album: Grbavica ?
transkribcija: Damir Fific, The Netherlands, dd3@iname.com  
ili budala@angelfire.com

info: sentimentalna balada od rock legende Tife.Tonalnost je 
C-dur sa modulacijom u A-mol za strofe.Koristena skala je 
C-dur / A-mol ( C,D,E,F,G,A,B)


figure 1: intro solo ( svira se preko C5,G5,D5,A5, C5,G5,F5,E5,F5)
sl.                                                     
-----------------------------------------------------|
-----6-8------------------5-6------------------------|
-/-9-----9--7^9^7^5-7---/7----7--5^7^5^4-5-7---------|
-----------------------------------------------------|
-----------------------------------------------------|
-----------------------------------------------------|

drugi put
----------------------
----------------------
----7-5-4--------5----
--7-------7-5-7----7--
----------------------
----------------------

figure 2: keyboard melodija   figure 3: fill 1       
                              bend     bend   release
-----------------18-16-15--]-------------------------]
---------------------------]--20(22)--20(22)-(20)----]
-16-17-14--X3--------------]-------------------------]
---------------------------]-------------------------]
---------------------------]-------------------------]
---------------------------]-------------------------]

figure 4: fill 2 

-15-15--------------
-------18-17-15-----
-----------------17-
--------------------
--------------------
--------------------


figure 5: refren
  C5         G5                    bend   F5   E5       A5 G5
-------------------------------------------------------------
-------------------------------------------------------------
-------------------------------------------------------------
--5---5-----------X2----5--5---------------------------------
--3---3---5---5---------3--3---5----------3--2-----3-----7--5
----------3---3----------------3---3(5)---1--0--0--1--0--5--3


A
Hej Grbavice,rano ljuta
pritisla me teska tuga.
Na trenutak i pomislim
F      E              A    (druga gitara => D)
da si sada neka druga.


Hej Grbavice,bolna si mi,
izdaleka gledam ulice tvoje.
Tamo su slike djetinstva moga,
tamo je sve sto je moje    (figure 3-uvod za refren)


REF: (figure 5)
      Kroz zivot cijeli Miljacka dijeli,
      mene od krila tvog.( figure 4:fill 2)
      I neznam kad cu,al' znam da cu
      doci do doma svoga.   


figure 6: solo  (prvi dio sola je isti kao i intro 
                 pa ovdje pocinjem sa drugim dijelom)



E|-----------------^--^--^--^----------13------^--^---^----
B|--/17-18-20-17-15-17-15-13-15--15-17----15-13-15-13-12-13
G|---------------------------------------------------------
D|---------------------------------------------------------
A|---------------------------------------------------------
E|---------------------------------------------------------


E|-----------------------^--^--^-------------------------------
B|-15--17-18-20-17-----15-17-15-13------15-13-12------------/17
G|-----------------------------------14----------14-12-14------
D|-------------------------------------------------------------
A|-------------------------------------------------------------
E|-------------------------------------------------------------

  varijacija          bend release
E|--------------------^---^--^--^-------------------17-15---------
B|-18-20-17-15-17-15-13-15-17(18)-(17)-15--13-12-13-------18-17-15
G|----------------------------------------------------------------
D|----------------------------------------------------------------
A|----------------------------------------------------------------
E|----------------------------------------------------------------


E|--------------------------8----8--12-8-12--17-12-17-17--
B|-13--------------10---10----10--------------------------
G|---------------9----9-----------------------------------
D|------------10------------------------------------------
A|---------12---------------------------------------------
E|--------------------------------------------------------


^ = hammer on / pull-off
17(19)= bend citavu notu ( od E do F#)
/ = slide