Vojicic Mladen - Tifa - Mamurno Jutro

Transkripcija: zvornicanin (sead_hadzigrahic@hotmail.com)
Album        : Ostacu s´ tobom


intro:
         D            C         Am7        D           D
E|---------2-----------------------0------------2---------2--------
H|-------3----3-----------1------1---1--------3---------3---3------
G|-----2--------2-------0------0-------0----2---------2-------2----
D|---0----------------2------2------------0--------(0)-------------
A|------------------3----------------------------------------------
E|-----------------------------------------------------------------

       C        Am7         Em                   Fil1:
E|------------------0-------0---------||       E|-----------------
H|---------1------1---1-----0---------||       H|-----------------
G|-------0------0-------0---0---------||       G|-----------------
D|-----2------2-------------2---------||       D|-----------2s5---
A|---3----------------------2---------||       A|-----------------
E|--------------------------0---------||       E|-----3-2-0-------

          D                Em   C                Dsus 2 Dsus4
                                                E|--0--|--3--------
  Mamurno jutro, napolju kosava                 H|--3--|--3--------
     D          Em          D                   G|--2--|--2--------
  za sankom dripci, poneka kurva                D|-----|-----------
        C    Fil1          D                    A|-----|-----------
  nudi obecava, oci mi vlazne                   E|-----|-----------
        C     G
  dusa umorna, poguren cutljiv
  D        C           D
  vucem se satima, tebe nema vec
         Em   D                  C   C
  pomalo lud, isao bih ali nemam kud.

  G          D Dsus2 D Dsua4 D
  Crne su mi sve
  Am        Em
  moje zore umorne
  G              D   Dsus2 D Dsus4 D
  i samom bogu teske ste
         C
  kada nema je.

  Mamurno jutro, napolju kosava
  jos jedno pice molim, jedno duplo
  pred spavanja, oci mi vlazne
  dusa umorna, hej zeno hej zeno
  kako tuzna predstava tebe nema vec
  pomalo lud, isao bih ali nemam kud,nemam kud.

Neki mali da ga nazovemo solo uz zvizdanje:

E|--7-8-10--8-7-5---5-7-8-7-5-7-5-3-----|---7-8-10--8-7-5-7-3--|
H|----------------------------------5-3-|----------------------|
G|--------------------------------------|----------------------|Parx
D|--------------------------------------|----------------------|