Vojicic Mladen - Tifa - Nije To Ljubav

Transkripcija: Adnan Beharic - NIXON (ado_b@hotmail.com)


intro: G C G D   2x

  G                  C
veceras necu spavati
            G    C
pa nemoj ni ti
  G                  C
veceras bi te ljubio
         G
i nikada izgubio
        C
za sebe cuvao
D            C
veceras ja i ti
           G   C
u ime ljubavi

veceras bi me mazila i pazila
veceras bi me ljubila
i srecu slutila
za sebe imala
D         C                  G    C
al' nismo mi vise djeca ljubavi
D         C
al' nismo mi

ref:
        G
nije to ljubav
D
nit' ljubomora
        C              2x
nije to strast
G        D
samo pozuda


intro:

veceras bi me mazila...

ref: 2x

solo: G C G D   4x

ref:

(nisam htjeo da pravim probleme
 al doslo je do dileme ili ja ili on)

ref:


***VERZIJA 2***
Transkripcija: Adi adiazrael@hotmail.com
Home         : www.2akordi.net

Ovo sam skinuo po NIXON-ovim akordima, pa provjerite (nisam siguran
za ovaj zadnji takt) Svaka cast NIXON!

E|-------------------|------------------|------------------|---------|
B|-0-0--1-0----------|--1-1--3-1-0------|-0-0--1-0---------|-1/3~~---|
G|----------2--0-----|--------------2---|----------2--0----|---------|
D|-------------------|------------------|------------------|---------|
A|-------------------|------------------|------------------|---------|
E|-------------------|------------------|------------------|---------|

Primedbe i sugestije su dobro dosle.


***VERZIJA 3***
Transkripcija: Djordje Stojkovic - Crni (juznapruga018@hotmail.com)

* Postojeca tablatura uvoda ove pesme iz arhive mi se svidja,
* mada smatram da uz neke male promene bolje zvuci...

E|----------------|----------------|----------------|--------|
B|----------------|----------------|----------------|--------|
G|-4-4--4/5-4-----|-5-5--5/7-5-4---|-4-4--4/5-4-----|--------|
D|-----------7-5--|-------------7--|-----------7-5--|-5/7~~--|
A|----------------|----------------|----------------|--------|
E|----------------|----------------|----------------|--------|

* Ovo je moja prva transkripcija, ako postoje greske
* molio bih vas da mi stavite do znanja.