Vojicic Mladen - Tifa - Ostacu S Tobom

Transkripcija: pipss@mail.ru
Home         : 2akordi.net


Uvod:
|Gm  F  |Gm   |Gm  F  |Gm   |

        Gm
Neka mi bog oprosti
F                Gm
nikome ne trebas ti
         Gm              F
Najmanje ovoj plasljivoj sjeni
  Gm
u meni.

D7      Gm 
Prokleta rijetka zvjerko
D7     Cm  [Gm Am Bb D7]
da sam znao ne bih ceko
   Gm 
da vrijeme iscuri
    F               Eb
jer tebi se ne zuri jos.

Noc je preduga burna
ni pasijans da skrati mrak
sve ove slike gdje se smijes
sve cu da bacim u zrak.

Dugo je do ezana
jeftin triler sa ekrana
jos samo da svane 
da zaustavim sat.

        Cm
Onda me tugo pokolebas
          Gm
a vec sam mislio da bjezim
          F
udjes pod kozu kad ne trebas
          Bb        Bb/B
vracas me osmjesima svjezim
 
          Cm
Kvaris mi vjetar, kidas mreze
       Gm            Eb
ostacu s tobom da se druzim
         Gm  [A  Bb]Cm 
nikad mi nije bi_lo teze
D7        Cm      D7        Gm
ostat' cu s tobom da ti slu__zim.

SOLO:
|Cm     |Gm      |F       |Bb  Bb/B|
|Cm     |Gm  Eb  |Gm  D7  |Gm      |

...itd


***VERZIJA 2***
Transkripcija: Miralem Batlak - m|-batla@online.no

SOLO:
e|-------------------------------------------------------|
B|--------------------------------------------6---8------|
G|-7-5-7-10--8-7-8--8-7-5-7--5------------5-7---7---7----|
D|-----------------------------7-5----5-7----------------|
A|---------------------------------8-8-------------------|
E|-------------------------------------------------------|

e|-------------------------------------------------------|
B|---13---15-16-13--20-18-16-18-15--15-16-15-13-15-------|
G|-12--12------------------------------------------------|
D|-------------------------------------------------------|
A|-------------------------------------------------------|
E|-------------------------------------------------------|

e|---15-17-18-15-17-18-20-20-18-17-18-15-----------------|
B|-15----------------------------------------------------|
G|-------------------------------------------------------|
D|-------------------------------------------------------|
A|-------------------------------------------------------|
E|-------------------------------------------------------|

Ja se nisam trudio da ispisem gdje treba skliznuti ili hamrati
to cete vi osjetiti kroz vjezbanje tj. slusanje ovog sola
Zivi bili i puno svirajte na gitari