Vojicic Mladen - Tifa - Stipu Gatibo

Transkripcija: zvornicanin(sead_hadzigrahic@hotmail.com)
Info         : Pjesma je skinuta sa akusticne gitare tako da sam onaj
               glavni riff zamjenio sa Am u strofama.Mala rezervacija za text.

Am
Klela si se nisi nikada
C          G        Am
dzaba suze dani izbliza
Am
onda opet kunes se
C          G            Am   Fill1
samo jedan prije mene bio je

C          G  C        G
Mojne meni to mace maleno
C          G   Am    Am
mojne meni to stipu gatibo

Klela si se nisi nikad prije
duboko grlo slabo te odaje
dragi tvoj da te zamoli
ucini ono ti si najbolji.

Fill1:
     E|--------------------------|
     H|--------------------------|
     G|--------------------------|
     D|---7-5--------------------|
     A|-------7-5----------------|
     E|-----------7-5--(3)-------|

________
Komentar: Denis

ovaj fill bolje zvuci ovako:(doduse na basu, mada isto zvuci)

g|------------------------
d|---5s7-6-5--------------
a|-----------7-6-5-0-3----
e|------------------------


***VERZIJA 2***
Transkripcija: Adi - adiazrael@hotmail.com

E-------------------------------------
B-------------------------------------
G-------------------------------------
D-----7/5---5---5/7----7/5---5---5----
A---0-5/3-0-3-0-3/5--0-5/3-0-3-0-3----
E-------------------------------------


***VERZIJA 3***
Transkripcija: Marko Ivanis

Uvod: Gm A# F Gm

Fill 1:
E||--------------------------|-------------------------|
B||--------------------------|-------------------------|
G||--------------------------|-------------------------| 2x
D||--------------------------|-------------------------|
A||--5--5--5--5--5--5--5--5--|--5--5--5--5--3--3--1----|
E||--3--3--3--3--3--3--3--3--|--3--3--3--3-------------|

Gm5
Klela si se nisi nikada
A#5          F        Gm
dzaba suze dani izbliza
Gm5
onda opet kunes se
A#5         F5           Gm5   Fill1
samo jedan prije mene bio je


Prelaz:
|-----------------------||
|-----------------------||
|-----------------------||
|--5--3-----------------||
|-------5--3------------||
|--------------5--3/-1--||


A#          F  A#        F
Mojne meni to mace maleno
A#            G           +Prelaz
mojne meni to stipu gatibo

Klela si se nisi nikad prije
duboko grlo slabo te odaje
dragi tvoj da te zamoli
ucini ono ti si najbolji.