Yu Grupa - Crni Leptiri

Transkripcija: Mr.Z  mr.z@mindless.com
Home         : http://2akordi.net/


     Em          D               Em
Ulicna svetiljka,baca svetlost u krug,
                 D             Em
dok crni leptiri lete pravo na nju,
EmG D     Em Em G     D Em
ali ne znaju da tu je kraj ,
Em G  D  Em  G    D        Em
da ih ubija njene svetlost sjaj

Nekad sam leteo leptir bio i ja ,
svetlost me mamila krila mi sprzila,
crni leptiru ,bezi u noc,
jutro sacekaj svetlost ce doc'


***VERZIJA 2***
Transkripcija: Bojan Vrucinic (bvrucinic@yahoo.com)
Home         : http://www.2akordi.net

Info: Ne znam bas za intro ali meni zvuci u redu

Intro:
E|-0-3-5-7-7-5-3-5-5-3-2-3-2-3-2---------------------------|
H|-------------------------------5-3-7-7-5-7-8-7-8-7-5-3-5-|
G|---------------------------------------------------------|
D|---------------------------------------------------------|
A|---------------------------------------------------------|
E|---------------------------------------------------------|

     Em          D               Em
Ulicna svetiljka,baca svetlost u krug,
                 D             Em
dok crni leptiri lete pravo na nju,
EmG D     Em  G     D Em
ali ne znaju da tu je kraj ,
Em G  D  Em  G    D        Em
da ih ubija njene svetlost sjaj

Nekad sam leteo leptir bio i ja ,
svetlost me mamila krila mi sprzila,
crni leptiru ,bezi u noc,
jutro sacekaj svetlost ce doc'


***VERZIJA 3***
Transkripcija: Sale (goma@pop.transit.ru)
Home         : http://yurope.com/people/sen/The.Book.Of.Home/akordi

     Em          D               Em
Ulicna svetiljka,baca svetlost u krug,
                 D             Em
dok crni leptiri lete pravo na nju,
EmG D     C  Em G     D C
ali ne znaju da tu je kraj ,      )
Em G  D  C  Em    G        Em     ) X 2
da ih ubija njene svetlost sjaj   )

Nekad sam leteo leptir bio i ja ,
svetlost me mamila krila mi sprzila,
crni leptiru ,bezi u noc,             )
jutro sacekaj svetlost ce doc         )  X 2


***VERZIJA 4***
Transkripcija: Dusan Djordjevic duka


info: akordi za ritam koje je poslao bojan su tacni,ali mu solo bas
      ne stima,ovo je 100% tacan solo,uzivajte!

e----------------------------------------------------------
h---8-10-10s12---12-10-8-8s10--10-8-7-7s8--7-7-------------
g-9-----------------------------------------7--7s9-9-7 7s9-
d----------------------------------------------------------
a----------------------------------------------------------
e----------------------------------------------------------

e----------------------------------------------------------
h-7-7-7s8---7s8-7s8-7-7------------------------------------
g--9-----------------7-7s9-9-7-7s9-------------------------
d----------------------------------------------------------
a----------------------------------------------------------
e----------------------------------------------------------


***VERZIJA 5***
Transkripcija: Nikolic

Uvod-solo:
   Em    G        Am     G   D       Em    D        G            Em
e|-----5-7--7-5---5-5------------------|------------------------------------|
H|-5-8----------8-----8-7-8--7-8-7-5---|---7--7-5-7-7^8---7-5---5---5-----5-|
G|-------------------------------------|-7--------------------7---------7---|
   Em    G        Am     G   D       Em    D        G            Em
e|-----5-7--7-5---5-5------------------|-------------------------------------|
H|-5-8----------8-----8-7-8--7-8-7-5---|---7--7^5---7\8~8~8~-7---5---5-----5-|
G|-------------------------------------|-7--------7------------7---------7---|