Yu Grupa - Cudna Suma


Transkripcija: Ivan Vasic (ivasic@cent.co.yu)
Home         : http://www.tablature.co.yu


Am
Jednog toplog dana usred guste sume
G
medved ispi med i sok
D               C                  Am
uhvati za sovu, s njom poce igrati rok

Oko njih se brzo sakupise drugi
druzina je sumska sva
s medvedom i oni zaigrase dva po dva

Am                    G
Tresla se zemlja celi dan
D      C          Am
ne zna s kim igra ko
Am                G
dodje tigar zvani Kan
D     C        Am
sudna suma je to

Na pecurki jedno bubamara igra
partner joj je obad ljut
ona mu se zali kako plese prvi put
slonica je opet uhvatila misa
pa se vrti s njim u krug
misica sa slonom postade sad najbolji drug

Oko jednog panja lija zeca juri
moli ga za igru tu
zec se neda, zeli kozu svoju citavu svu
ljubomorna mecka sto joj muz sa sovom
igra ovaj ljuti rok
hoce da se napije pa ispija medni sok

***VERZIJA 2***
Transkripcija: Igor Medarevic - mmarko@blic.net
Home         : www.2akordi.net

Uvod:
E-----------------------------------------------------------------
H-----------------------------------------------------------------
G------------------3/5-5-----9-8-6-6--9-8-6-6--9-8-6-6-6/11-11\3--
D-----6---8---9--------------6-6-6-6--6-6-6-6--6-6-6-6------------
A--4-4-4-4-4-4-4-4-------4-4--------------------------------------
E-----------------------------------------------------------------

E-----------------------------------------
H-----------------------------------------
G------------------3/5-5------------------
D-----6---8---9----------444444444444444--
A--4-4-4-4-4-4-4-4-------222222222222222--
E-----------------------------------------

1.
E--------------------------------------
H--------------------------------------
G--------------------------------------
D--6-6-8-6-6-6-8-6-6-6-8-6-6-6-8-6-----
A--4-4-4-4-4-4-4-4-4-4-4-4-4-4-4-4-----
E--------------------------------------
  Jednog toplog dana usred guste sume

E--------------------------------------
H--------------------------------------
G--------------------------------------
D--4-4-6-4-4-4-6-4-4-4-6-4-4-4-6-4-----
A--2-2-2-2-2-2-2-2-2-2-2-2-2-2-2-2-----
E--------------------------------------
   medved ispi med i sok

E--------------------------------------------------
H--------------------------------------------------
G--------------------------------------------------
D-----------------------------------6-x-6-x-6-x-6--
A--4-4-6-4-4-4-6-4-2-2-4-2-2-2-4-2--4---4---4---4--
E--2-2-2-2-2-2-2-2-0-0-0-0-0-0-0-0-----------------
   uhvati za sovu, s njom poce igrati rok

2.
E--------------------------------------
H--------------------------------------
G--------------------------------------
D--6-6-8-6-6-6-8-6-6-6-8-6-6-6-8-6-----
A--4-4-4-4-4-4-4-4-4-4-4-4-4-4-4-4-----
E--------------------------------------
  Oko njih se brzo sakupise drugi

E--------------------------------------
H--------------------------------------
G--------------------------------------
D--4-4-6-4-4-4-6-4-4-4-6-4-4-4-6-4-----
A--2-2-2-2-2-2-2-2-2-2-2-2-2-2-2-2-----
E--------------------------------------
  druzina je sumska sva

E-------------------------------------------------------------------
H-------------------------------------------------------------------
G-------------------------------------------------------------------
D----------------------------------6-6-8-6-6-6-8-6-6-6-8-6-6-6-8-6--
A--4-4-6-4-4-4-6-4-2-2-4-2-2-2-4-2-4-4-4-4-4-4-4-4-4-4-4-4-4-4-4-4--
E--2-2-2-2-2-2-2-2-0-0-0-0-0-0-0-0----------------------------------
  s medvedom i oni,zaigrase dva po dva

ref

E-------------------------------------------------------------------
H-------------------------------------------------------------------
G-------------------------------------------------------------------
D--6-6-8-6-6-6-8-6-6-6-8-6-6-6-8-6-4-4-6-4-4-4-6-4-4-4-6-4-4-4-6-4--
A--4-4-4-4-4-4-4-4-4-4-4-4-4-4-4-4-2-2-2-2-2-2-2-2-2-2-2-2-2-2-2-2--
E-------------------------------------------------------------------
   Tresla  se  zemlja   celi      dan

E-------------------------------------------------------------------
H-------------------------------------------------------------------
G-------------------------------------------------------------------
D----------------------------------6-6-8-6-6-6-8-6-6-6-8-6-6-6-8-6--
A--4-4-6-4-4-4-6-4-2-2-4-2-2-2-4-2-4-4-4-4-4-4-4-4-4-4-4-4-4-4-4-4--
E--2-2-2-2-2-2-2-2-0-0-0-0-0-0-0-0----------------------------------
     ne zna        s kim igra      ko

E-------------------------------------------------------------------
H-------------------------------------------------------------------
G-------------------------------------------------------------------
D--6-6-8-6-6-6-8-6-6-6-8-6-6-6-8-6-4-4-6-4-4-4-6-4-4-4-6-4-4-4-6-4--
A--4-4-4-4-4-4-4-4-4-4-4-4-4-4-4-4-2-2-2-2-2-2-2-2-2-2-2-2-2-2-2-2--
E-------------------------------------------------------------------
    dodje   i   tigar     zvani    Kan

E------------------------------------------
H------------------------------------------
G------------------------------------------
D------------------------------------x--6--
A--4-4-6-4-4-4-6-4-2-2-4-2-2-2-4-2---x--4--
E--2-2-2-2-2-2-2-2-0-0-0-0-0-0-0-0---------
      cudna        suma    je to

3.
Na pecurki jednoj bubamara igra
partner joj je obad ljut
ona mu se zali kako plese prvi put

4.
slonica je opet uhvatila misa
pa se vrti s njim u krug
misica sa slonom postade sad najbolji drug

ref

Solo

5.
Ljubomorna mecka,sto joj muz sa sovom
igra ovaj brzi rok
Hoce da se napije, pa ispija med i sok

6.
Oko jednog panja lija zeca juri
moli ga za igru tu
on se neda, zeli kozu svoju citavu svu

ref 2x

Solo

Predjite vrhom trzalice preko 6. zice, a onda navalite na solo

E-------------------------------------------------
H-9b-----------9b-----------9b------9b------------
G---11-9-11-9----11-9-11-9----11-9----11-9-11-9---
D------------11-----------11------11-----------11-
A-------------------------------------------------
E-------------------------------------------------

             ----------------------------
             ----------------------------
             11-9------------------------ 2x
             ----11109-11109-11109-11109-
             ----------------------------
             ----------------------------

E--9-9--9-9-----------------------------------
H--9-9--9-9-9-------9-x-9-x-9-----------------
G------------11-9---9---9---9-----9-----9p11--
D----------------11-----------9-11--9-11------
A---------------------------------------------
E---------------------------------------------

E--9-9--9-9----------------------------------------
H--9-9--9-9-9-------9-x-9-x-9----------------------
G------------11-9---9---9---9----------------11----
D----------------11-----------9-10-11-10-9-10--11--
A--------------------------------------------------
E--------------------------------------------------

E--9-9--9-9--------------------------------
H--9-9--9-9-9-------9-x-9-x-9--------------
G------------11-9---9---9---9-----9-----9--
D----------------11-----------9-11--9-11---
A------------------------------------------
E------------------------------------------

E--9-9--9-9--------------------------------------------7-7--
H--9-9--9-9-9------------------------------------------7-7--
G------------11-9---9-----11-9--11-9--11-9------------------
D----------------11--11-9-----11----11----11-9-10-11-9------
A-----------------------------------------------------------
E-----------------------------------------------------------

Kraj

E---------------------------------
H---------------------------------
G---------------------------------
D----6-----6-----6--6----4-----6--
A--6-4---6-4---6-4--4----2-----4--
E--4-----4-----4------------------

3.i 5. strofu svirate po riff semi kao u 1. strofi
4.i 6. strofu svirate po riff semi kao u 2. strofi

Refren koji se svira na kraju ima malu izmenu.Svirate 2 puta za redom
ref s tim sto nema onog uobicajenog kocenja na riffu Cis ,nego se samo
nastavlja i na kraju se odsvira 'Kraj'