Yu Grupa - Dunavom Jos Sibaju Vetrovi

Transkripcija: Luka Manojlovic (Luka.Manojlovic@guest.arnes.si)
Home         : 2akordi.net


Em7   D    C         Am7
Stari grad brije kosava
Em    D       C
lisce pokriva sve
Em7    D   C          Am7
prazan kej i golo drvece
Em7    D     C      A
sve je kao i pre

 D   G       D   Am          Em
     Dunavom jos sibaju vetrovi
     G       D   A              Em
     ali smo mi suprotni svetovi

Jesen je na tebe secam se
al' neko drugi je mlad
gde li si, prva ljubavi
i kako izgledas sad



***VERZIJA 2***
Transkripcija: Ivan Vasic (ivasic@cent.co.yu)
Home         : http://www.tablature.co.yu


Em    D    Am       Em
Stari grad brije kosava
Em    D        Am Em
lisce pokriva sve
Em     D    Am        Em
prazan kej i golo drvece
Em     D      Am Em D G
sve je kao i pre

G       D   Am         Em D G
Dunavom jos sibaju vetrovi
G       D  Am            Em
ali smo mi suprotni svetovi

Jesen je, na tebe secam se
al neko drugi je mlad
gde li si, prva ljubavi
i kako izgledas sad ?


***VERZIJA 3***
Transkripcija: Mukajlo

onaj slakti deo na pocetku:
-10----------10-----------------------10--------------------------------
----12--10------12--10-------------------12--10-------------10----------
-----------------------12--11--9-----------------12--11--12-----11--9---
---------------------------------12-12----------------------------------
------------------------------------------------------------------------
------------------------------------------------------------------------


***VERZIJA 4***
Transkripcija: Igor Medarevic - mmarko@blic.net
Home         : www.2akordi.net


Uvod

Gitara 1 svira
E--10-7----10-7------------10-7-------------------------
H------10------10-8-7----------10-8-7-8-8/10-7---7-8-8--
G--------------------9-7-7--------------------9---------
D-------------------------------------------------------
A-------------------------------------------------------
E-------------------------------------------------------

E--10-7----10-7------------10-7---------------
H------10------10-8-7----------10-8-7-8-10-7--
G--------------------9-7-7--------------------
D---------------------------------------------
A---------------------------------------------
E---------------------------------------------

Gitara 2 svira isto to ,samo za oktavu nize,prema tome:
E------------------------------------------------
H------------------------------------------------
G--7-4---7-4-----------7-4-----------------------
D-----7-----7-5-4---------7-5-4-5-5/7-4---4-5-5--
A----------------7-5-5-----------------7---------
E------------------------------------------------

E---------------------------------------
H---------------------------------------
G--7-4---7-4-----------7-4--------------
D-----7-----7-5-4---------7-5-4-5-7-4---
A----------------7-5-5---------------7--
E---------------------------------------


Ova 1. kratka solazica je
slajd koji se cuje u pozadini refrena

Kratke solaze
E-10b-\-- --12b-10--12b-- --15b-14b-12b---12--
H-10b-\-- --------12----- -------------12-12--
G-------- --------------- --------------------
D-------- --------------- --------------------
A-------- --------------- --------------------
E-------- --------------- --------------------

E--19b---17b-----15b-- ----------17-----------
H--------------------- --17-19-20--20-17-17b--
G--------------------- -----------------------
D--------------------- -----------------------
A--------------------- -----------------------
E--------------------- -----------------------

E--12-14-15-x-12-12b--
H---------------------
G---------------------
D---------------------
A---------------------
E---------------------