Yu Grupa - Odlazim

Transkripcija: Igor Medarevic - mmarko@blic.net
Home         : www.2akordi.com


* Dok klavijature sviraju uvod pratite sa akordima;

Am G D Am 2x

Uvodni riff
E--------------------------------------------
H--------------------------------------------
G--9--9-7-9-7-7-5/7-7-9------9--9--9--9-9-7--
D--7--7-7-7-7-7-5/7-7-9-7-\--7--7--7--7-7-7--
A-----------------------7-\------------------
E--------------------------------------------

E-----------------------------------------
H-----------------------------------------
G--9--9-7-9-7-7-5/7-7-9------9--9--9-9-\--
D--7--7-7-7-7-7-5/7-7-9-7-\--7--7--7-7-\--
A-----------------------7-\---------------
E-----------------------------------------

Am                    G       D        Am
Probudi me sunce kroz prozore prljave, musave
Am                G    D      Am
Oblacim se zurno, kafu pijem, nestajem
Am                 G     D     Am
Trljam oci sanjive da mi ne bi zaspale
Am                    G     D      Am
Vrata guram nervozno, ptice gledam slobodne

Ref:
C5                    F5
Odlazim dok jos drugi spavaju
C5                 F5           D5 D5 D5 D5 D5
Koraci plocnikom odzvanjaju

Am                G      D     Am
Osvrcem se okolo, gledam puste ulice
Am                      G      D     Am
Krecem stazom poznatom, pustam misli slobodne

Ref:

Odlazim...

Prelaz:
B5       F5         C5
Na obali zacaran ja sanjarim
B5        F5         C5          D5 D5 D5 D5 D5
Kao ladje velike tad otplovim

Solo 1

Ref:

Odlazim...

Solo 2

Ref;

Odlazim...

Solo 3

Solo 1
E----------------------------------------------------------
H----------------------------------------------------------
G--/9-7-5-7---5--------5---5/7-5------7/9-9-9-9p7-5---7-5--
D--/7-7-5-7-7-5-7--5h7-5-7-5/7-5-7-\--5/7-7-7-------7---5--
A-----------7---7--5h7---7-------7-\-----------------------
E----------------------------------------------------------

E--------------------------------------------------
H--------------------------------------------------
G------5---7-5-----5---5-7-p5--7b-5---------5------
D--5h7-5-7-7-5-5h7-5-7-5-7-p5--7b-5-7---5-7-5-7-\--
A--5h7---7-----5h7---7--------------7-7-5-7---7-\--
E-------------------------------------7------------

E--------------------------------------------------------
H----------------------------------8-7-5-----------------
G----5-7-7/9-5-7p5--5-7/9-7-5-7-5--------8-7-5----7-5-\--
D--7--------------5----------------------------7p5--5-\--
A--------------------------------------------------------
E--------------------------------------------------------

E--1/3-3-5-\--------------5b-5----------------------------
H--1/3-3-3--------------------8-5-7-5-5-5-----------------
G------------3/5-5-5-7--3------------7---7-5-7-5----------
D------------3/5-5-5-5--3-------------------7----7-5-7-7--
A---------------------------------------------------------
E---------------------------------------------------------

Solo 2
E-----------------------------------------------------------
H-----8b--\7----------------------------8-10-10-10--8-10-8--
G------------9-7-9\7-5--7-5--------5---9--------------------
D---------------------7----7-5-7-7--------------------------
A-----------------------------------------------------------
E-----------------------------------------------------------

E--8p7h8-10-p8----------------------------
H-------------10-10-10----8---------------
G----------------------7h9-7\5-7-7-p5-----
D------------------------------------7-7--
A-----------------------------------------
E-----------------------------------------

E--10b--10-8-10-8---------------------------
H-----------------10-10----8----------------
G-----------------------7h9-7\5-5-7-7-7--5--
D-------------------------------------------
A-------------------------------------------
E-------------------------------------------

E-------------------------------------------------------------
H--8b--8b\7-5--5----------------------------10b--10--10-8-10--
G------------7--7-5--7-5----------------------------9---------
D------------------7----7-5-7-7-5--5b-5b-5b-------------------
A-------------------------------------------------------------
E-------------------------------------------------------------

Solo 3
E------------------------------------------
H---------10b--10-8------------------------
G----------9b-------7h9p7\5-7-5-----5-/-0--
D--5-/--7------------------7---7-7-7-------
A--5-/--7----------------------------------
E------------------------------------------

E---------5-3----------------------------------
H--0h3h4h5------------5-3----------------------
G--------------0h3h4h5----------5--------------
D--------------------------0h5h7--h7-----------
A--------------------------------------0\-0-/--
E-------------------------------------12\-5-/--

E--------------------------------5b-5--------------
H--8-10-10b-\------------------------5-7-8b-~~-~~--
G-------------5-7-7b-\-----------------------------
D----------------------0-5-7-\-/-------------------
A--------------------------------------------------
E--------------------------------------------------

------------------------------
--7h8p7p5-----5---------------
---------7-5h7-7-5-----5------
------------------7-5-7-7--7--
------------------------------
------------------------------

E---8---8---8--8--8---------------------------------
H--10--10--10-10-10--10b-10-8-----------------------
G----------------------------9-9\7-5-7-5---------5--
D---------------------------------------7-5-7--7----
A---------------------------------------------------
E---------------------------------------------------

E--10b--8--------10b--8--------------10b--8---------------
H--------10-8-10-------10-8-10-10--8-------10-8-10--8-10--
G---------------------------------------------------------
D---------------------------------------------------------
A---------------------------------------------------------
E---------------------------------------------------------



***VERZIJA 2***
Transkripcija: DrS   (drs@galeb.etf.bg.ac.yu)
Poslao       : Vlado (vlado.t@hotmail.com)
Home         : http://galeb.etf.bg.ac.yu/~drs/muzika/


Am                    G       D        Am
Probudi me sunce kroz prozore prljave, musave
Oblacim se zurno, kafu pijem, nestajem
Trljam oci sanjive da mi ne bi zaspale
Vrata guram nervozno, ptice gledam slobodne

ref:
C                     F
Odlazim dok jos drugi spavaju
C                  F           D
Koraci plocnikom odzvanjaju

Osvrcem se okolo, gledam puste ulice
Krecem stazom poznatom, pustam misli slobodne

prl:
B        F          C
Na obali zacaran ja sanjarim
B         F          C           D
Kao ladje velike tad otplovim