Za Jednu Noc - Melanholija

Transkripcija: Nenad Jeremic (nenadjrmc@yahoo.com)



 - napomena: znam da nije sve bas 100% tacno, ali lici...

(deo ispred INTRO-a)
E -------------------------0--0--------2---------0---| x n
H --0h1h3h1-0h1h0----------0--0--------3---------0---|
G ------------------0------0--0--------2--0------0---|
D -------------------------2--2----0-------------2---|
A -------------------------2--2------------------2---|
E ---------------------0---------------------0-------|

INTRO
E --------------------------------------------------------------------------------
H --------------------------------------------------------------------------------
G ---4--4-5-4h5h4-----4--4-----4--7--5--4----4-5-4h5h4--4--4-----4----------------
D ---5-------------7--------7----------------5---------------7-----7--7--5--4-----
A ---7---------------------------------------7---------------------------------7--
E --------------------------------------------------------------------------------

E ---7--7-8-7h8h7-----7--7-----7--10--8--7--
H ---8-------------10-------10--------------
G ---9--------------------------------------
D ------------------------------------------
A ------------------------------------------
E ------------------------------------------

 -7--7-8-7h8h7------7------------------7--8--7---------------|
 -8-------------10-----8--7--8----10-------------10--8--7----|
 -9--------------------------------------------------------9-|
 ------------------------------------------------------------|
 ------------------------------------------------------------|
 ------------------------------------------------------------|


 strofa: Em D      |
                   | - mrzi me da rasporedjujem
 refren: G D Em D  |

...
Evo vec su prosle godine
Kako su me oci odale
Prosao sam mnoge puteve
Ni na jednom nisam sreo te

Od onog dana kad si otisla
K'o da me je puska zgromila
Odavde do mora muzika
Svira da je ljubav prestala

refren:

Melanholija ...
U Septembru ...
To je sve sto imam ...
Sto jos uvek imam ...

Idem dalje i zaboravljam
Sve sto imam tebi ostavljam
Ruke izvadim iz dzepova
Samo kad je dusa nemirna

Ja sam tajna, odgonetni me
Ja sam puna casa istine
Samo nemoj da se napijes
Pa da moju casu razbijes

RITAM ZA SOLO: Em  D  C  D (bare hvatovi)
SOLO: prangijaj nesto po D-dur skali (II oktava) i zvucace OK ;)

KORISNO:

pozicije D-dur skale koje sam koristio

I oktava
E --------------------------------------------|
H --------------------------------------------|
G ------------------------------4-----6-----7-|
D --------------4----5----7-------------------|
A ----5----7----------------------------------|
E --------------------------------------------|

II oktava
E -----------------------------7----9----10---|
H ------------7----8----10--------------------|
G --7----9------------------------------------|
D --------------------------------------------|
A --------------------------------------------|
E --------------------------------------------|

AKORDI:

    E A D G H E
    ------------
D:  x x 0 2 3 2
----------------
Em: 0 2 2 0 0 0
----------------
G:  3 2 0 0 0 3
----------------

Em: 7 7 9 9 8 7
----------------
D:  5 5 7 7 7 5
----------------
C:  3 3 5 5 5 3
----------------