Zabranjeno Pusenje (bg) - Gile Sampion

Transkripcija: NEred_source


^^=full bend
 ^=half bend
 \=slide up
 /=slide down
 r=relase
~~=vibrato

primer: 5^r\ nategnete 5 za pola tona onda,
        odpustite i odslajdujete prema gore

SOLO:                                
|----------------------------|-------13-------13-------13p10-----------
|--------------------/11-10--|-10-11----10-11----10-11-------10-11~~---
|--5^r\---/7---/10-----------|-----------------------------------------
|----------------------------|-----------------------------------------
|----------------------------|-----------------------------------------
|----------------------------|-----------------------------------------

 --------13-13---13h11-13^--13^r-11-13~~~------------10---10----10-10--
 --10-11---------------------------------------10----10------11-11-11--
 ------------------------------------------/10----10-------------------
 ----------------------------------------------------------------------
 ----------------------------------------------------------------------
 ----------------------------------------------------------------------

 ----10--------10-----------------------------------------------------|\
 -11----11-11-----11-8-10--10----10-----------------------------------||
 -----------------------------10--------------7~~~--------------------||
 -------------------------------------10^^r-8-------------------------||
 ---------------------------------------------------------------------||
 ---------------------------------------------------------------------|/