Zabranjeno Pusenje (bg) - Zeni Nam Se Vukota

Transkripcija: Milos Maksic
Poslao       : Anthony (maksimil@ptt.yu)
Album        : Ja nisam odavle



Cm
Zeni nam se Vukota,
C7                      Fm
zenom zvanom Ljubica iz Futoga,
           Cm
bice mnogo zvanica
   D7                    G7
iz razvijenih ekonomskih zajednica.

Digao je Vukota
sator onaj veliki sa vasara
bice mesta za sve nas
samo nece, nece biti Jasara.

Ref: 
Cm                 Fm      Cm
Dok je mene Jasara zivoga, zdravoga
Fm         G7     Cm
Ljubica se udat nece.

Para ima Vukota
nezvanicni distributer Malbora
neka pusi narod nas
krisom ispod spoljnog zida sankcija.
Poklon sprema Vukota
svome tatku sleper zlatnog Malbora
al' tajnu cuva Ljubica
da vjecno voli samo svoga Jasara.

Slavio je Vukota
slavilo je sestvaes' svatova
tri se dana pjevalo
pet je puta dolazila murija.
Al' kad bude treca noc
pijani trubac viknu ljudi upomoc
ispred glavnog satora
nema vise slepera ni Malbora.

Istrcao Vukota
istrcao presudi mu utoka
Jasar zgrabi Ljubicu
sleperom kroz sumicu ka Horgosu.
Spremna ceka carina
nema sverca, mita, malverzacija
spengala ih marica
pjevala se pjesma iza resetaka.



Solo posle svakog refrena:
   Cm                                     Fm
E--------------------------------------- -14p13p11--14p13p11--14p13p11--14--11--
B--14p13p11--14p13p11--14p13p11--14--11- ---------------------------------------
G--------------------------------------- ---------------------------------------
D--------------------------------------- ---------------------------------------
A--------------------------------------- ---------------------------------------
E--------------------------------------- ---------------------------------------

                       Cm                   Fm                      G7
E--14p13p11--14p13p11--------------------- -14-13-11-------------------------------------
B----------------------14p13p11--14p13p11- ----------14-13-11----------------------------
G----------------------------------------- -------------------14-11----------------------
D----------------------------------------- -------------------------15-13-11-------------
A----------------------------------------- ----------------------------------15-13-12----
E----------------------------------------- -------------------------------------------13-

   Cm                                     Fm
E--------------------------------------- -14p13p11--14p13p11--14p13p11--14--11--
B--14p13p11--14p13p11--14p13p11--14--11- ---------------------------------------
G--------------------------------------- ---------------------------------------
D--------------------------------------- ---------------------------------------
A--------------------------------------- ---------------------------------------
E--------------------------------------- ---------------------------------------

                       Cm                   D7
E--14p13p11--14p13p11--------------------- ----------------------------------
B----------------------14p13p11--14p13p11- ----------------------------------
G----------------------------------------- ----------------------------------
D----------------------------------------- ----11----15-14-11----11----------
A----------------------------------------- -15----15----------15----15-15-15-
E----------------------------------------- ----------------------------------

Prelaz:
   Cm    A#6     Cm    A#6
E------------- -------------
B--4--4--3---- --4--4--3----
G--5--5--3---- --5--5--3----
D--5--5--3---- --5--5--3----
A------------- -------------
E------------- -------------

***VERZIJA 2***
Transkripcija: Ekipa
Home         : http://www.geocities.com/Nashville/Stage/2457


Cm
Zeni nam se Vukota
C7                      Fm
Zenom zvanom Ljubica iz Futoga
           Cm
Bice mnogo zvanica
D                        G
Iz razvijenih ekonomskih zajednica

Digao je Vukota
Sator onaj veliki sa vasara
Bice mjesta za sve nas
Samo nece, nece biti Jasara

    Cm
    Dok je mene Jasara,
    Fm      Cm
    Zivoga, zdravoga,
    Fm         G      Cm
    Ljubica se udat nece

Para ima Vukota,
Nezvanicni distributer Marlbora,
Neka pusi narod nas
Krisom ispod spoljnog zida sankcija

Poklon sprema Vukota
Svome tastu sleper zlatnog Marlbora
Al' tajnu cuva Ljubica
Da vjecno voli samo svoga Jasara.

    Dok je mene Jasara,
    Zivoga, zdravoga,
    Ljubica se udat nece

Slavio je Vukota,
Slavilo je 620 svatova,
Tri se dana pjevalo
Pet je puta dolazila murija

Al' kad bude treca noc
Pijani trubac viknu ljudi upomoc
Ispred glavnog satora
Nema vise slepera ni Marlbora

    Dok je mene Jasara,
    Zivoga, zdravoga,
    Ljubica se udat nece

Istrcao Vukota
Istrcao, presudi mu utoka
Jasar zgrabi Ljubicu
Sleperom kroz sumicu ka Horgosu

Spremna ceka carina,
Nema sverca, mita, malverzacija
Spengala ih marica
Povela se pjesma iza resetaka

    Dok je mene Jasara,
    Zivoga, zdravoga,
    Ljubica se udat nece