Zabranjeno Pusenje (zg) - Fildzan Viska

Transkripcija: Vanja Cerimagic (fur_immer_punk@hotmail.com)
Home         : http://2akordi.net


Intro: C,F,C,G,F

   C
  69'-a moj stari i ja,
F      C    G
  Na biciklima,
   G
  Pa pravac Ilidza,put rijeka livada,
     F                     C
  Gdje teferici raja iz Sarajeva.

   C
  Cebe,pivara,rostilj i odbojka,
         F        C     G
  Sve sareno poput cilima,
  G
  A sa radija plima od Indexa
     F                       C
  I vijesti iz Vijetnama. a-ha


                     C
       I stari rece tad-Vidis tu svako zna
          F         C       G
       Politka je prosta stvar,
        G
       Kafu kad zakuvas flidzan se ostavlja,
                F                       C
       Ako ko naidje jebi ga,to ovdje svako zna.
              F       C     G
       To je raja iz Sarajeva,to ovdje svako zna.
        F                        C
       Raja iz Sarajeva,iz moga Sarajeva.-


   C
  84-e je pao snijeg
      F        C      G
  I skupio se citav svijet
   G
  Pa skije na rame i sanke u ruke
   F
  Put rajske doline.

           C
  Begovu dzamiju nekom kauboju
   F          C   G
  Bi jalija prodala
               G
  Strendzeri skontali da slava i novcici
     F                   C
  I nisu najvazniji u votazi.

                C
       I stari rece tad-vidis sada citav svijet zna
      F       C     G
       Da postoji grad
                       G
       Gjde se kafa zakuva i fildzan ostavlja,
                F                       C
       Ako ko naidje,jebi ga,to ovdje svako zna.
              F         C   G
       To je raja iz Sarajeva,to ovdje svako zna.
        F                        C
       Raja iz Sarajeva,iz moga Sarajeva-

  Solo:C5,F5-C5-G5,F5

            C5
  Proljece 92-e,vreli celik raznese
          F5    C5        G5
  Sve komsiluke i sve derneke,
            G5
  Kazu sve dosada je laz i obmana,
          F5                         C5
  Zavjera ustasko-dzihadska i upali foluska.

               C5
       I star rece tad cisteci zgarista
            F5            C5       G5
       -Ne zalim zutog jugu a ni stan,
                     G5
       Vec sto vise nikada kafu kad zakuvam,
                F5                     C5
       Fildzan necu ostavljat,ako ko naidje
        F5C5 G5
       Jebi ga,to sada svako zna,
              F5                         C5
       To je raja iz Sarajeva,iz moga sarajeva.
        F5        C5  G5
       Raja iz Sarajeva,iz moga sarajeva
        F5                       C
       Raja iz sarajeva,iz moga Sarajeva-


main riff-na slican nacin:)
   C                 F     C    G          G              G     F
e------0--0---0----0-----1----0-----------------3-------------3------1
h-----1----3----1-------1----1-----3---1-3-----0----3--3-----3------1-
g----0----------0------2----0-----0-----------0-------0-----0------0--
d---2-----------------3----2-----0-----------0-------0-----0------0---
a--3-----------------3----3-----2-----------2--------------------2----
e------------------------------3-----------3--------------------3-----


***VERZIJA 2***
Transkripcija: ????
Poslao       : Mario (marioloncar@freemail.com)
Home         : http://fly.cc.fer.hr/~janje
       
       
Dm                   Gm B   C   
69'-a moj stari i ja,na biciklima
Dm                          C 
pa pravac Ilidza put rijeka livada
              Gm    B  C 
gdje teferici raja iz Sarajeva

.............

***VERZIJA 3***
Transkripcija: ???
Poslao       : r_faruk

UVOD:
     C                              F                     G  G   
E||--0----0-------0-------|----0----1----1-----0--|----0-----0---------|
B||--1-------3---------1--|---------1-------1--1--|-------1--0----3--1-|
G||--0--------------------|---------2----------0--|----------0---------|
D||--2--------------------|---------3----------2--|----------0---------|
A||--3--------------------|---------3----------3--|----------2---------|
E||--0--------------------|---------1----------0--|----------3---------|

           G                                              F        
-----------0----------|--------------0-------|------------1----1-----|
--3--------3----3-----|---------3---------3--|------------1----------|
-----------0----------|----0-----------------|----0-------2-------2--|
-----------0-------0--|----------------------|---------0--3----------|
-----------2----------|----------------------|------------3----------|
-----------3----------|----------------------|------------1----------|
                    
----1---------------||
----1---------------||
-------------------*||
-------------------*||
--------------------||
--------------------||