Zabranjeno Pusenje (zg) - Halid Mjesto Halida

Transkripcija: Davor Tomic (tomicd2@tiger.uofs.edu)
Poslao       : Goran Maric (goranm_sa@hotmail.com)
Home         : http://academic.scranton.edu/student/TOMICD2


Uvod: 
e------------------------------- 
H-------------------------------
G-------------3-3-3-3----------- 
D--3-3/5--5-----------5-3--5-5--
A--1-1/3--3----------------3-3-- 
E-------------------------------
--------------------------------

Solo Pratnja: 
 C x2 
e-------------------------------
H-----5----6-----5----3--------- 
G--5----5-----5----5-----5------ 
D------------------------------- 
A------------------------------- 
E-------------------------------
--------------------------------

C 
Tamo negdje iza sadam gora, 
gdje vozi OUR "Prigradski saobracaj"       
u maloj kuci se rodio Halid, 
                         G 
na nebu je zvijezda zasjala 

Gazda iz kafane "Visnja" rece: 
"Ljudi ovo je dobar znak 
bice pjevac, glumac il' politicar, 
a mozda i Halid mjesto Halida!" 

Skola mu nije isla bogzna kako 
mrzile ga profesorice 
a sve je puklo kada je mazno 
lovu od ekskurzije 

Poso je pjevat u kafani, 
bilo je gadno, bilo je degeneka 
ko onda kad je pjevo "Tamo daleko" 
kamiondziji iz Citluka 


Ref: x2 
F 
Al' sve se nekako predevera, kad imas viziju, imas san 
Am                             C                      G 
gutu para, koka povazdan, da budes Halid mjesto Halida 


Improvizirani solo: x2 
e-------------5--------------------------------- 
H--8-8-8-5-----8-5------------------5----5------
G---------------------7-7-5-5--5-7-----7----7-5-
D-----------------------------------------------
A-----------------------------------------------
E-----------------------------------------------

e-----------------------------------------
H-----------------------------------------
G---------------------------------------5- 
D-7-5-7-5-7--------7-5-7-5-7---------7---- 
A-------------7-5-7-------------7-5-7-----
E----------------------------------------- 

Menadzer Boro ga je uzeo pod svoje 
u Sarajevu da ploce snimaju 
novine su pisale: "To nisu cista posla, 
tu se turske pjesme hapaju!" 

Al' Halidu su rekli da ne pita nista 
i da se smije i kad ne konta fol, 
imace kucu s teniskim terenom, 
BMW-a kesom placenog 

Ref: x2 
Solo: x2 

(dobro je, mali, odmori malo) 
Ovdje bi treb'o ici solo 
i tu se nasa prica prekida 
uglavnom Halid i postade Halid 
mjesto Halida 
(hajd opet, mali- fala daidja) 

(a sad opet ja) 
Al' dobre pjesme dobivo je sve rjedje 
prestigli ga novi pastuji brzi 
sto im je nekad zvao ture 
sto ih je pusto da vire kada guzi 

Stok u ruci mjesto mikrofona 
sve rjedje na naslovnim stranama 
zenu su mu vidjeli na Stojcevcu 
s nekim juniorom "Sarajeva" 

Al' jedno vece se odvezo u brda 
i odozgo gledo kako svijetli grad 
i iznad neke male kuce 
na nebu je zvijezda zasjala 

I k'o da mu se neka velika tezina 
s ledja sama skinula 
doslo je vrijeme da neko drugi bude 
Halid mjesto Halida 

Solo: x4