Zabranjeno Pusenje (zg) - Karabaja

Album: Bog vozi Mercedes, 2001.

A5

A5
Ponekad nocu, kada nema svjetla
			      E5
I ne vidi se put od kise i od vjetra
	  F#5	      A5
Sjetim se njega - Karabaja

I tu pocinje ta prica, negdje nasred Trebevica
Auto mi je stao u mraku k'o iz krimica
Strava prava - Karabaja

Kad kroz zavjesu od kise pride covjek k'o da klize
Kozna jakna puna sjaja, pruza ruku
Rece kratko - Karabaja

Ja sam biker, nisam rauber, 'ajde prosetaj do haube
mozda napravimo nesto od te tvoje robe s greskom
rece sa smjeskom

Ma pusti prdn'o je u sisu, a on samo rece tisu
I dok rukama si pljesn'o, stari auto vec je kresn'o
Strava prava - Karabaja

prelaz1

Rekoh sebi simpa junkie - e bas cu pricat' Branki
Haj'mo nesto popit' covjek si cudan al' duhovit
"Neka hvala" - Karabaja

I jos mi je rek'o, prije neg' je nest'o 
Dole u Harley baru pronadi moju raju
Reci da sam te ja posl'o i da ti srede motor 
Dobar si covjek imas jaja, pozdravlja te Karabaja
Karabaja...

prelaz2

-----------|-----------------|------------------------------------------------
-----------|-----------------|------------------------------------------------
-7-6-4-2-2-|-2-4-6-7-6-4-2-2-|-2-4-6-7-7--7-7--7-7-7-x7-6-4-2-4-6--4-2-4/-6-6-
-7-----2-2-|-2-----7-----2-2-|-2-4---7-7--7-7--7-7-7-x7---4-2-4-6--4-2-4/-6-6-
-5-4-2-0-0-|-0-2-4-5-4-2-0-0-|-0-2-4-5-5--5-5--5-5-5-x5-4-2-0-2-4--2-0-2/-4-4-
-----------|-----------------|------------------------------------------------
 prelaz1     prelaz2           kara--baja mora dalje  kara----baja na--ci mora    

-----------------------------------------------------------------------
-----------------------------------------------------------------------
-2-4-6-7-7--7--7--7-7-7-x7-6-4-2x2-4-4-6----4---2-2-2------------------
-2-4-6-7-7--7--7--7-7-7-x7-6-4-2x2-4-4-6----4---2-2-2------------------
-0-2-4-5-5--5--5--5-5-5-x5-4-2-0x0-2-2-4----2---0-0-0------------------
-----------------------------------------------------------------------
 kara--baja ne mo ze na    nebo      o tic' bez motora                 

(akordi su za drugu gitaru)
    D
Karabaja mora dalje
    E	      A
Karabaja naci mora
    D
Karabaja ne moze na nebo
E	    A
Otic' bez motora

To be continued....

Parkiram se, udem u Harley bar
I upratim tu sam covjek vrlo stran
Like a krme in Teheran

Osjetim poglede na sebi i da se smot'o ne bi 
Prvi progovaram, sve vas pozdravlja Karabaja

Nasta muk u kafani, niko nista nije pit'o
Atmosfera je bila k'o kad je umro Tito
Najveci sin

Pride mi stariji roker "Ma jesi normalan, jeb'o te
Karabaja se, ljepoto, rast'o sa zivotom
Izbo ga stoper, ukr'o mu motor."

Karabaja mora dalje
Karabaja naci mora
Karabaja ne moze na nebo
Otic' bez motora